Oops, an error
Loading. Please wait.

Her Monologue Tab

3,378 views 9 this week
no commentswrite comment
1 2 3 4 5
excellent!
x 3
add to favorites
launch autoscroll
font size
0
reset
how to read this tab
guitar tuner
Tab Pro tools
  • play this tab
  • loop segment
  • change instrument
  • show fretboard
  • metronome
Autoscroll
slow
fast
+/-
esc
set tempo
stop
Contributor
Difficulty
Tuning
intermediate
A# F A# D# G C
-------------------------------------------------------------------------------------------------
                                   ISSUES - "Her Monologue"       
-------------------------------------------------------------------------------------------------

Band: ISSUES
Song: Her Monologue
Album: Black Diamonds EP
Track: 6

Tabbed by: Matthew Langston
Email: mattack_mattack@aol.com

Tuning: Drop A# (A# F A# D# G C)
                (Bb F Bb Eb G C)



[0:00 - 0:53]

"Terrified of getting old..."

C |-------------------------------------------------| > "1b3r1":
G |-------------------------------------------------|   Bend on the first fret
D#|-------------------------------------------------|   to where it sounds like
A#|-------------------------------------------------|   the third fret, then release
F |-------------------------------------------------|   the bend back to where it
A#|--8b--0-0~---1b3r1-1b3r1--0-0--0~---1b3r1--0-0~--|   sounds like the first fret.

C |-------------------------------------------------|
G |-------------------------------------------------|
D#|-------------------------------------------------|
A#|-------------------------------------------------|
F |-------------------------------------------------|
A#|--8b--0-0~---1b3r1-1b3r1--0-0--0~---1b3r1--0-0~--|

C |-------------------------------------------------|
G |-------------------------------------------------|
D#|-------------------------------------------------|
A#|-------------------------------------------------|
F |-------------------------------------------------|
A#|--8b--0-0~---1b3r1-1b3r1--0-0--0~---1b3r1--0-0~--|

C |-------------------------------------------------|
G |-------------------------------------------------|
D#|-------------------------------------------------|
A#|-------------------------------------------------|
F |-------------------------------------------------|
A#|--8b--0-0~---1b3r1-1b3r1--0-0--0~---1b3r1--0-0~--|

C |------------------------------|---------------------------------|
G |------------------------------|---------------------------------|
D#|------------------------------|---------------------------------|
A#|------------------------------|---------------------------------|
F |--0---00-0-0--0----00--0-000--|--0---00-0-0--0---00-0-000-0000--|
A#|--0---00-0-0--0----00--0-000--|--0---00-0-0--0---00-0-000-0000--|
     .   .. . .  .    ..  . ...     .   .. . .  .   .. . ... ....

C |------------------------------|-------------------------------------------------|
G |------------------------------|-------------------------------------------------|
D#|------------------------------|-------------------------------------------------|
A#|------------------------------|---------------8~------------------3~-3~--3~-----|
F |------------------------------|--12~------12~-----12~---------7~-----7~-----7~--|
A#|--0~--00-0-0~-0~---00~-0-000--|-------8~--------------8~--5~--------------------|



[0:53 - 1:24]

C |-------------------------------------------------------------------------------------------|
G |-------------------------------------------------------------------------------------------|
D#|-------------------------------------------------------------------------------------------|
A#|--7~--7~--77~--/10~----7~--7~----/10~---------5~--5~--55~-5~--5~---------------------------|
F |--8~--8~--88~----------8~--8~-----------------5~--5~--55~-5~--5~--------------------/8-----|
A#|--8~--8~--88~-------8~-7~--7~--7~------8~-7~--5~--5~--55~-5~--5~--0--0-0--0--0---0------5--|

C |--------------------------------------------------------------------------------------------|
G |--------------------------------------------------------------------------------------------|
D#|--------------------------------------------------------------------------------------------|
A#|--7~--7~--77~--/10~----7~--7~----/10~---------5~--5~--55~-5~--5~----------------------------|
F |--8~--8~--88~----------8~--8~-----------------5~--5~--55~-5~--5~--------------------0-------|
A#|--8~--8~--88~-------8~-7~--7~--7~------8~-7~--5~--5~--55~-5~--5~--0--0-0--0--0---0----3--0--|

C |--------------------------------------------------------------------------------------------|
G |--------------------------------------------------------------------------------------------|
D#|--------------------------------------------------------------------------------------------|
A#|--------------------------------------------------------------------------------------------|
F |-------------------------------------------------------------------------------------/8-----|
A#|--0~--000~-0~--10~--10~--7~--000~--0~--0~--3~--5~--555~-5~--10~--10~--7~--000--0--0------5--|

C |--------------------------------------------------------------------------------------------|
G |--------------------------------------------------------------------------------------------|
D#|--------------------------------------------------------------------------------------------|
A#|--7~--7~--77~--/10~----7~--7~----/10~---------5~--5~--55~-5~--5~----------------------------|
F |--8~--8~--88~----------8~--8~-----------------5~--5~--55~-5~--5~--------------------0-------|
A#|--8~--8~--88~-------8~-7~--7~--7~------8~-7~--5~--5~--55~-5~--5~--0--0-0--0--0---0----3--0--|



[1:24 - 1:54]

C |-------------------------------------------------|
G |-------------------------------------------------|
D#|-------------------------------------------------|
A#|-------------------------------------------------|
F |-------------------------------------------------|
A#|--8b--0-0~---1b3r1-1b3r1--0-0--0~---1b3r1--0-0~--|

C |-------------------------------------------------|
G |-------------------------------------------------|
D#|-------------------------------------------------|
A#|-------------------------------------------------|
F |-------------------------------------------------|
A#|--8b--0-0~---1b3r1-1b3r1--0-0--0~---1b3r1--0-0~--|

C |--------------------------------|---------------------------------|
G |--------------------------------|---------------------------------|
D#|--------------------------------|---------------------------------|
A#|--------------------------------|---------------------------------|
F |--0-0-0000-0-0--0----00--0-000--|--0---00-0-0--0---00-0-000-0000--|
A#|--0-0-0000-0-0--0----00--0-000--|--0---00-0-0--0---00-0-000-0000--|
     . . .... . .  .    ..  . ...     .   .. . .  .   .. . ... ....

"I can see you sleep through your bedroom window. 
You're killing yourself with lucid dreaming..."



[1:55 - 2:17]

C |----------------------------------------------------|
G |----------------------------------------------------|
D#|----------------------------------------------------|
A#|--0--0-0----0-0--0-------0~--0~--0-0----0-0-0-0--0--|
F |--0--0-0----0-0--0-------0~--0~--0-0----0-0-0-0--0--|
A#|--1--1-1----1-1--1-------1~--1~--1-1----1-1-1-1--1--|
     .  . .    . .  .       .   .   . .    . . . .  .

C |-------------------------------------------------------|
G |-------------------------------------------------------|
D#|-------------------------------------------------------|
A#|--0--0-0----0-0--0---0--0---------------0-0-0-0--0--0--|
F |--0--0-0----0-0--0---0--0---------------0-0-0-0--0--0--|
A#|--1--1-1----1-1--1---1--1---------------1-1-1-1--1--1--|
     .  . .    . .  .   .  .               . . . .  .  .

C |------------------------------|-------------------------------------------------|
G |------------------------------|-------------------------------------------------|
D#|------------------------------|-------------------------------------------------|
A#|------------------------------|---------------8~------------------3~-3~--3~-----|
F |------------------------------|--12~------12~-----12~---------7~-----7~-----7~--|
A#|--0~--00-0-0~-0~---00~-0-000--|-------8~--------------8~--5~--------------------|



[2:18 - 2:48]

C |-------------------------------------------------------------------------------------------|
G |-------------------------------------------------------------------------------------------|
D#|-------------------------------------------------------------------------------------------|
A#|--7~--7~--77~--/10~----7~--7~----/10~---------5~--5~--55~-5~--5~---------------------------|
F |--8~--8~--88~----------8~--8~-----------------5~--5~--55~-5~--5~--------------------/8-----|
A#|--8~--8~--88~-------8~-7~--7~--7~------8~-7~--5~--5~--55~-5~--5~--0--0-0--0--0---0------5--|

C |--------------------------------------------------------------------------------------------|
G |--------------------------------------------------------------------------------------------|
D#|--------------------------------------------------------------------------------------------|
A#|--7~--7~--77~--/10~----7~--7~----/10~---------5~--5~--55~-5~--5~----------------------------|
F |--8~--8~--88~----------8~--8~-----------------5~--5~--55~-5~--5~--------------------0-------|
A#|--8~--8~--88~-------8~-7~--7~--7~------8~-7~--5~--5~--55~-5~--5~--0--0-0--0--0---0----3--0--|

C |--------------------------------------------------------------------------------------------|
G |--------------------------------------------------------------------------------------------|
D#|--------------------------------------------------------------------------------------------|
A#|--------------------------------------------------------------------------------------------|
F |-------------------------------------------------------------------------------------/8-----|
A#|--0~--000~-0~--10~--10~--7~--000~--0~--0~--3~--5~--555~-5~--10~--10~--7~--000--0--0------5--|

C |--------------------------------------------------------------------------------------------|
G |--------------------------------------------------------------------------------------------|
D#|--------------------------------------------------------------------------------------------|
A#|--7~--7~--77~--/10~----7~--7~----/10~---------5~--5~--55~-5~--5~----------------------------|
F |--8~--8~--88~----------8~--8~-----------------5~--5~--55~-5~--5~--------------------0-------|
A#|--8~--8~--88~-------8~-7~--7~--7~------8~-7~--5~--5~--55~-5~--5~--0--0-0--0--0---0----3--0--|



[2:49 - 3:17]

C |-------------------|
G |-------------------| > You can hear this in the background very faintly.
D#|-------------------|   I don't know if it's guitar or not, but I thought
A#|-------------------|   I'd just include it in the tab.  (Played x16)
F |--------------1p0--|
A#|--0-0-0-0-3p0------|

And then...

C |-------------------------------------------------------------------------|
G |-------------------------------------------------------------------------|
D#|-------------------------------------------------------------------------|
A#|--0-0--0-----0--0-0--0--0-0--0--0-------0--0--0--0--------0-0-0-0--0--0--|
F |--0-0--0-----0--0-0--0--0-0--0--0-------0--0--0--0--------0-0-0-0--0--0--|
A#|--1-1--1-----1--1-1--1--1-1--1--1-------1--1--1--1--------1-1-1-1--1--1--|
     . .  .     .  . .  .  . .  .  .       .  .  .  .        . . . .  .  .

C |----------------------------------------------------|
G |----------------------------------------------------|
D#|----------------------------------------------------|
A#|--0-0--0-----0--0-0--0--0-0--0--0-------0--0--0--0--|
F |--0-0--0-----0--0-0--0--0-0--0--0-------0--0--0--0--|
A#|--1-1--1-----1--1-1--1--1-1--1--1-------1--1--1--1--|
     . .  .     .  . .  .  . .  .  .       .  .  .  .



[3:17 - 6:22]

RAP OUTRO



[END]



************************************

| b   bend
| ~   held note
| br  bend, release
| .   palm mute
| /   slide up
| p   pull-off

************************************
comments
We did not receive enough feedback on this tab! Please rate:
print report bad tab
1 2 3 4 5
I want to post or [tab]
guest
You may want to rate the tab now too:
select rating
Please do not post tabs as comments. Select "correction" instead!