Oops, an error
Loading. Please wait.

Hooligans Tab

version 1
version 1

Whole song

Interactive

23,848 views 60 this week
2 commentsread comments
1 2 3 4 5
excellent!
x 5
add to favorites
launch autoscroll
font size
0
reset
how to read this tab
guitar tuner
Autoscroll
slow
fast
+/-
esc
set tempo
stop
Help us to improve Ultimate-Guitar.com Take our survey!
×
Author
Difficulty
Tuning
intermediate
A# F A# D# G C
--------------------------------------------------------------------------------------------------
                                   ISSUES - "Hooligans"       
--------------------------------------------------------------------------------------------------

Band: ISSUES
Song: Hooligans

Tabbed by: Yuichi116
YouTube Channel:http://www.youtube.com/user/yuichi116

Tuning: Drop A# (A# F A# D# G C)
                (Bb F Bb Eb G C)

, = palm mute
b = bend 
br = bend release
* = picking harmonix



[0:25 - 0:41]

C |----------------------------------|----------------------------------|
G |----------------------------------|----------------------------------|
D#|----------------------------------|----------------------------------|
A#|--------------------1-------------|----------------------------------|
F |------5-------4------------0---1--|-----5---0001-01-0001-01-04---1---|
A#|--00-0--1-00-0--1-0--001-00--10-1-|-00-0--1-0001-01-0001-01---1-4--1-|
     ,  ,    ,  ,    ,   ,   ,   ,     ,  ,    ,,,  ,  ,,,  ,     

C |--------------------------------|----------------------------------|
G |--------------------------------|----------------------------------|
D#|--------------------------------|----------------------------------|
A#|--------------------------------|----------------------------------|
F |----5-------4------------0---4--|-----5---000-----0000-00--4--00-0-|
A#|-2-1--1-00-0--1-0000-00-0-21--1-|-00-0--1-0001-02-0000-00-0-1-00-0-|
           ,  ,      ,  ,            ,  ,    ,,,     ,,,, ,,     ,, ,

[0:42 - 1:00]

C |--------------------------------|--------------------------|
G |--------------------------------|--------------------------|
D#|--------------------------------|--------------------------|
A#|--------------------------------|--------------------------|
F |-0-00-0-00--00--0-00-0-00--12---|-0-00-0--00--00-br--000-0-|
A#|-0-00-0-00-100--0-00-0-008----8-|-0-00-0-300-300--1--000-0-|
    , ,, , ,,  ,,  , ,, , ,,         , ,, ,  ,,  ,,     ,,, ,

C |-----------------------------|---------------------------|----------------|
G |-----------------------------|---------------------------|----------------|
D#|-----------------------------|---------------------------|-5~-------------|
A#|-----------------------------|---------------------------|-3~-------------|
F |-----------------------------|-0-00-0---00--00--br-000-0-|-0~-------------|
A#|-0-00-0-00-000--0-00-0-000-0-|-0-00-0--300-300--1--000-0-|-0~-------------|
                                  , ,, ,   ,,  ,,     ,,, ,


[1:07 - 1:23]

C |----------------------------------------|----------------------------------------|
G |----------------------------------------|----------------------------------------|
D#|----------------------------------------|----------------------------------------|
A#|-10-10-1010-10---10-----10-10-10--------|-7--7--7--7----------5------10----10-10-|
F |-8--8--8-8--8-------8---8--8--8---------|-3--3--3--3------------3-------8--8--8--|
A#|-8--8--8-8--8005------0-8--8--8--00-0-0-|-3--3--3--3000-0-0-2------0-------0--0--|
                ,,       ,          ,                  ,,                       

C |----------------------------------------|----------------------------|
G |----------------------------------------|----------------------------|
D#|----------------------------------------|----------------------------|
A#|-10-10-1010-10---10-----10-10-10--------|-7--7--7--7----------5------|
F |-8--8--8-8--8-------8---8--8--8---------|-3--3--3--3------------3----|
A#|-8--8--8-8--8005------0-8--8--8--00-0-0-|-3--3--3--3000-0-0-2--------|
                ,,       ,          ,                  ,,     


[1:24 - 1:33]

C |----------------------------------|-------------------------------|
G |----------------------------------|-------------------------------|
D#|----------------------------------|-------------------------------|
A#|--------------------1-------------|-------------------------------|
F |------5-------4------------0---1--|-----5---000--0--000--0--00--b*|
A#|--00-0--1-00-0--1-0--001-00--10-1-|-00-0--1-0001-01-0001-01-00103-|
     ,  ,    ,  ,    ,   ,   ,   ,     ,  ,    ,,,  ,  ,,,  ,  ,,  


[1:34 - 1:58]

C |-----------------------------------|-----------------------------------|
G |-----------------------------------|-----------------------------------|
D#|-----------------------------------|-----------------------------------|
A#|-----------------------------------|-----------------------------------|
F |-000-00-0000----b-b---b-b-000-----1|-000-00-0000------b-b---b-b--0-0000|
A#|-000-00-0000--1-2-1-0-3-2-000-1-2--|-000-00-0000----1-2-1-0-3-2--1-1111|
    ,,, ,, ,,,,              ,,,        ,,, ,, ,,,,                 , ,,,,

C |-----------------------------------|-------------------------------------|
G |-----------------------------------|-------------------------------------|
D#|-----------------------------------|-------------------------------------|
A#|-----------------------------------|----------------------------------0~-|
F |-000-00-0000----b-b---b-b-000-----1|-000-00-0000----b-b---b-b-000000000~-|
A#|-111-11-1111--1-2-1-0-3-2-000-1-2--|-000-00-0000--1-2-1-0-3-2-000000000~-|
    ,,, ,, ,,,,              ,,,        ,,, ,, ,,,,              ,,,,,,,,

C |---------------------------------------------------------------|
G |---------------------------8888-888-----------------8888-10-10-|
D#|---------------------------9999-999-----------------9999-10-10-|
A#|---------------------------7777-777-----------------7777-8--8--|
F |-5---------00-0-000-0-0-00----------00-0-000-0-0-00------------|
A#|--800-0-0--00-0-000-0-0-00----------00-0-000-0-0-00------------|
      ,       ,, , ,,, , , ,,          ,, , ,,, , , ,, 


[2:13 - 2:30]

C |------------|
G |------------|
D#|------------|
A#|------------|
F |------------|
A#|-00-0--00-0-|


C |----------------------------------------|----------------------------------------|
G |----------------------------------------|----------------------------------------|
D#|----------------------------------------|----------------------------------------|
A#|-10-10-1010-10---10-----10-10-10--------|-7--7--7--7----------5------10----10-10-|
F |-8--8--8-8--8-------8---8--8--8---------|-3--3--3--3------------3-------8--8--8--|
A#|-8--8--8-8--8005------0-8--8--8--00-0-0-|-3--3--3--3000-0-0-2------0-------0--0--|
                ,,       ,          ,                  ,,                           


C |----------------------------------------|----------------------------|
G |----------------------------------------|----------------------------|
D#|----------------------------------------|----------------------------|
A#|-10-10-1010-10---10-----10-10-10--------|-7--7--7--7----------5------|
F |-8--8--8-8--8-------8---8--8--8---------|-3--3--3--3------------3----|
A#|-8--8--8-8--8005------0-8--8--8--00-0-0-|-3--3--3--3000-0-0-2--------| 
                ,,       ,          ,                  ,,     


[2:32 - 3:05]

C |---------------------------------------------------------------|
G |------------------------------------------------------------5~-|
D#|------------------------------------------------------------5~-|
A#|------------------------------------------------------------3~-|
F |-00--0-0-0000--0-00-0000--0-00--00--0-0000--00-0-00000-0--00---|
A#|-00--0-0-0000--0-00-0000--0-00--00--0-0000--00-0-00000-0--00---|
    ,,  , , ,,,,  , ,, ,,,,  , ,,  ,,  , ,,,,  ,, , ,,,,, ,  ,,

C |------------------------------------|
G |---9~--10---------------------------|
D#|---10~-10---------------------------|
A#|---8~--8-----0~----10~---0~----10~--|
F |-00----------0~----8~----0~----8~---|
A#|-00----------0~----8~----0~----8~---|
    ,,         


[3:13 - 3:45]

C |-------------------------------------|------------------------------------|
G |-------------------------------------|------------------------------------|
D#|-------------------------------------|------------------------------------|
A#|--10-10-10-10-10-1010-10-10-10-10-10-|-7--7--7--7--7--7-7--5--5--5--5--5--|
F |--8--8--8--8--8--8-8--8--8--8--8--8--|-3--3--3--3--3--3-3--3--3--3--3--3--|
A#|--8--8--8--8--8--8-8--5--5--5--5--5--|-3--3--3--3--3--3-3--2--2--2--2--2--|


C |----------------------------------------|----------------------------------------|
G |----------------------------------------|----------------------------------------|
D#|----------------------------------------|----------------------------------------|
A#|-10-10-1010-10---10-----10-10-10--------|-7--7--7--7----------5------10----10-10-|
F |-8--8--8-8--8-------8---8--8--8---------|-3--3--3--3------------3-------8--8--8--|
A#|-8--8--8-8--8005------0-8--8--8--00-0-0-|-3--3--3--3000-0-0-2------0-------0--0--|
                ,,       ,          ,                  ,,                       

C |----------------------------------------|----------------------------|
G |----------------------------------------|----------------------------|
D#|----------------------------------------|----------------------------|
A#|-10-10-1010-10---10-----10-10-10--------|-7--7--7--7----------5------|
F |-8--8--8-8--8-------8---8--8--8---------|-3--3--3--3------------3----|
A#|-8--8--8-8--8005------0-8--8--8--00-0-0-|-3--3--3--3000-0-0-2--------| 
                ,,       ,          ,                  ,,    

[3:47 - 3:51]

C |----------------------------------|
G |----------------------------------|
D#|----------------------------------|
A#|--------------------1-------------|
F |------5-------4------------0---1--|
A#|--00-0--1-00-0--1-0--001-00--10-1-|
     ,  ,    ,  ,    ,   ,   ,   ,


[END]
Suggest correction
comments
print report bad tab
2 comments total.
0 reply
GraceTheWrong 110 wrote on August 11 2013, 02:53 pm

The chord:
C |---|
G |---|
D#|---|
A#|-7-|
F |-3-|
A#|-3-|

Seems like a bit of a stretch for people with small hands like me. Do you have an alternate chord?

0 reply
Brendan S312 10 wrote on August 13 2013, 11:57 am

C |--------------|
G |--------------|
D#|-----2---2----|
A#|-7---3---x----|
F |-3---3---3----|
A#|-3---3---3----|

Try either of those mate, just move the Major third to the D# string, the octave is optional, Have fun xD

guest
You may want to rate the tab now too:
select rating
Wanna post a correction for this tab? Suggest correction