Oops, an error
Loading. Please wait.

King Of Amarillo Tab

version 1
version 1

Whole song

Interactive

36,637 views 45 this week
3 commentsread comments
1 2 3 4 5
excellent!
x 14
add to favorites
launch autoscroll
font size
0
reset
how to read this tab
guitar tuner
Autoscroll
slow
fast
+/-
esc
set tempo
stop
Help us to improve Ultimate-Guitar.com Take our survey!
×
Author
Difficulty
Tuning
intermediate
A# F A# D# G C
-------------------------------------------------------------------------------------------------
                                   ISSUES - "King of Amarillo"       
-------------------------------------------------------------------------------------------------

Band: ISSUES
Song: King of Amarillo
Album: King of Amarillo - Single
Track: 1

Tabbed by: AsILayDying504
Email: mattack_mattack@aol.com

Tuning: Drop A# (A# F A# D# G C)
                (Bb F Bb Eb G C)

*NOTE 1* 
There is a part in the chorus that harmonizes with the lead guitar. It sounds like 
a 3rd guitar but is really just synth.

*NOTE 2*
I was asked to provide a band website for ISSUES since they are not yet in the UG database.
ISSUES does not have an official website, but are signed to Velocity Records, and 
just released their first song today. 

LINKS:
Facebook: http://www.facebook.com/#!/issuesofficial
Twitter: https://twitter.com/issues
Wikipedia: http://en.wikipedia.org/wiki/Issues_(band)
New Song (YouTube): http://www.youtube.com/watch?v=6VuPEdTg7_k



[0:00 - 0:15]

C |----------------------------------------------------------|
G |----------------------------------------------------------|
D#|----------------------------------------------------------|  v = vibrato
A#|----------------------------------------------------------|  as said in key
F |------------------------00000-----------00000-------0-00--|  at bottom
A#|--1br-0---1br-0--1br-0--00000-12v-0~-0~-00000-1br-0-0-00--|
                           .....           .....       . ..

C |----------------------------------------------------------|
G |----------------------------------------------------------|
D#|----------------------------------------------------------|
A#|----------------------------------------------------------|
F |------------------------00000-----------00000-------0-00--|
A#|--1br-0---1br-0--1br-0--00000-12v-0~-0~-00000-1br-0-0-00--|
                           .....           .....       . ..



[0:15 - 0:34]

C |---------------------------------|-------------------------------|
G |---------------------------------|-------------------------------|
D#|------10-------------------------|------10-----------------------|
A#|------7--------------------------|------7------------------------|
F |--000-8-00------00-0--0-00-0-----|--000-8-00------0------4-------|
A#|--000---00-0~-0-00-0--0-00---2b--|--000---00-0~-0---1b-0---2b-0--|
     ...   ..      .. .  . ..          ...   ..

C |---------------------------------|-------------------------------|
G |---------------------------------|-------------------------------|
D#|------10-------------------------|------10-----------------------|
A#|------7--------------------------|------7------------------------|
F |--000-8-00------00-0--0-00-0-----|--000-8-00------0------4-------|
A#|--000---00-0~-0-00-0--0-00---2b--|--000---00-0~-0---1b-0---2b-0--|
     ...   ..      .. .  . ..          ...   ..

C |------------------------------------------------------|
G |------------------------------------------------------|
D#|------------------------------------------------------|
A#|------------------------------------------------------|
F |--0~-0~---0-0-0-0--0-0---0-000--0-0--00000-0----------|
A#|--0~-0~---0-0-0-0--0-0---0-000--0-0--00000---1b-0-00--|
     .  .    . . . .  . .   . ...  . .  .....        ..



[0:35 - 1:00]

  | Guitar 1 (x2)
C |------------------------|----1st----|----2nd----|
G |------------------------|playthrough|playthrough|
D#|------------------------|-----------|-----------|
A#|--3-3-3-3-3-3-3-3-3-3-3-|-----------|-3-3-3-3-3-|
F |--3-3-3-3-3-3-3-3-3-3-3-|-----------|-3-3-3-3-3-|
A#|--3-3-3-3-3-3-3-3-3-3-3-|-5-5-5-5-5-|-3-3-3-3-3-|
  |
C |-----------------------------------|
G |-----------------------------------|
D#|-----------------------------------|
A#|--5-5-5-5-5-5-5-5-5-5-5-5-5-7-7-7--|
F |--5-5-5-5-5-5-5-5-5-5-5-5-5-7-7-7--|
A#|--5-5-5-5-5-5-5-5-5-5-5-5-5-7-7-7--|
  |
C |-----------------------------------|
G |-----------------------------------|
D#|-----------------------------------|
A#|--8-8-8-8-8-8-8-8-8-8-8-8-8-8-8-8--|
F |--8-8-8-8-8-8-8-8-8-8-8-8-8-8-8-8--|
A#|--8-8-8-8-8-8-8-8-8-8-8-8-8-8-8-8--|
  |
C |-------------------------------------------|
G |-------------------------------------------|
D#|-------------------------------------------| Don't palm mute
A#|--10-10-10-10-10-10-10-10-7-7-7-7-7--------| second time
F |--10-10-10-10-10-10-10-10-7-7-7-7-7-0-0-0--|
A#|--10-10-10-10-10-10-10-10-7-7-7-7-7-0-0-0--|
                                       . . .


  | Guitar 2 (x2)
C |---------------------------------------------------|
G |---------------------------------------------------|
D#|--10-10-10-10-10-10-14-14-12-12-14-14-14-10-10-10--|
A#|--x--x--x--x--x--x--x--x--x--x--x--x--x--x--x--x---|
F |--8--8--8--8--8--8--12-12-10-10-12-10-10-8--8--8---|
A#|---------------------------------------------------|
  |
C |---------------------------------------------------|
G |---------------------------------------------------|
D#|--17-14-14-17-14-14-14-14-14/15-15-15-15/17-14-14--|
A#|--x--x--x--x--x--x--x--x--x--x--x--x--x--x--x--x---|
F |--15-12-12-15-12-12-12-12-12/13-13-13-13/15-12-12--|
A#|---------------------------------------------------|
  |
C |---------------------------------------------------|
G |---------------------------------------------------|
D#|--14\12-12-12-12-12-12-12-12/14-14-14-14-14-14-14--|
A#|--x--x--x--x--x--x--x--x--x--x--x--x--x--x--x--x---|
F |--12\10-10-10-10-10-10-10-10/12-12-12-12-12-12-12--|
A#|---------------------------------------------------|
  |
C |---------------------------------------------------|
G |---------------------------------------------------|
D#|--10-10-10-10-10-10-10-10-9--9--9--9--9--9--9--9---|
A#|--x--x--x--x--x--x--x--x--x--x--x--x--x--x--x--x---|
F |--8--8--8--8--8--8--8--8--7--7--7--7--7--7--7--7---|
A#|---------------------------------------------------|



[1:00 - 1:13]

C |-----------------------------------|--------------------------------|
G |-----------------------------------|--------------------------------|
D#|-----------------------------------|--------------------------------|
A#|---(elevens)-----------------------|--------------------------------|
F |--------------------0-------1------|---------------0-0-0-0-0-0-0-0--|
A#|--12-1111--0-11-0~----1-0-0---1-0--|--1br-0--1br-0-1-1-1-1-1-1-1-1--|
                                                      . . . . . . . .

C |-----------------------------------|--------------------------------|
G |-----------------------------------|--------------------------------|
D#|-----------------------------------|--------------------------------|
A#|---(elevens)-----------------------|--------------------------------|
F |--------------------0-------1------|---------------0-0-0-0-0-0-0-0--|
A#|--12-1111--0-11-0~----1-0-0---1-0--|--1br-0--1br-0-1-1-1-1-1-1-1-1--|
                                                      . . . . . . . .


[1:13 - 1:21]

TAKE THAT!

C |---------------------------------|-------------------------------|
G |---------------------------------|-------------------------------|
D#|------10-------------------------|------10-----------------------|
A#|------7--------------------------|------7------------------------|
F |--000-8-00------00-0--0-00-0-----|--000-8-00------0------4-------|
A#|--000---00-0~-0-00-0--0-00---2b--|--000---00-0~-0---1b-0---2b-0--|
     ...   ..      .. .  . ..          ...   ..



[1:21 - 1:34]

C |------------------------------------------------------------------|
G |------------------------------------------------------------------|
D#|------------------------10101010\---------------------------------|
A#|------------------------7-7-7-7\---------8-8-8-8-8-8-8-8-8-8-8-8--|
F |--8\--0~---5-0----------8-8-8-8\---------3-3-3-5-5-5-5-5-5-5-5-5--|
A#|--8\--0~-------0~-000~--8-8-8-8\--0000~--3-3-3-5-5-5-5-5-5-5-5-5--|

C |--------------------------------------------------------------------------|
G |--------------------------------------------------------------------------|
D#|------------------------10101010\--------10-10-10-10-9-9-9-9-9/10-10-10~--|
A#|------------------------7-7-7-7\---------x--x--x--x--x-x-x-x-x-x--x--x----|
F |--8\--0~---5-0----------8-8-8-8\---------8--8--8--8--7-7-7-7-7/8--8--8~---|
A#|--8\--0~-------0~-000~--8-8-8-8\--0000~-----------------------------------|



[1:34 - 1:59]

  | Guitar 1 (x2)
C |------------------------|----1st----|----2nd----|
G |------------------------|playthrough|playthrough|
D#|------------------------|-----------|-----------|  <-- Skip first two strums
A#|--3-3-3-3-3-3-3-3-3-3-3-|-----------|-3-3-3-3-3-|      of this part on
F |--3-3-3-3-3-3-3-3-3-3-3-|-----------|-3-3-3-3-3-|      first play through
A#|--3-3-3-3-3-3-3-3-3-3-3-|-5-5-5-5-5-|-3-3-3-3-3-|
  |
C |-----------------------------------|
G |-----------------------------------|
D#|-----------------------------------|
A#|--5-5-5-5-5-5-5-5-5-5-5-5-5-7-7-7--|
F |--5-5-5-5-5-5-5-5-5-5-5-5-5-7-7-7--|
A#|--5-5-5-5-5-5-5-5-5-5-5-5-5-7-7-7--|
  |
C |-----------------------------------|
G |-----------------------------------|
D#|-----------------------------------|
A#|--8-8-8-8-8-8-8-8-8-8-8-8-8-8-8-8--|
F |--8-8-8-8-8-8-8-8-8-8-8-8-8-8-8-8--|
A#|--8-8-8-8-8-8-8-8-8-8-8-8-8-8-8-8--|
  |
C |-------------------------------------------|
G |-------------------------------------------|
D#|-------------------------------------------| Don't palm mute
A#|--10-10-10-10-10-10-10-10-7-7-7-7-7--------| second time
F |--10-10-10-10-10-10-10-10-7-7-7-7-7-0-0-0--|
A#|--10-10-10-10-10-10-10-10-7-7-7-7-7-0-0-0--|
                                       . . .


  | Guitar 2 (x2)
C |---------------------------------------------------|
G |---------------------------------------------------|
D#|--10-10-10-10-10-10-14-14-12-12-14-14-14-10-10-10--|  <-- Skip first two strums
A#|--x--x--x--x--x--x--x--x--x--x--x--x--x--x--x--x---|      of this part on
F |--8--8--8--8--8--8--12-12-10-10-12-10-10-8--8--8---|      first play through
A#|---------------------------------------------------|
  |
C |---------------------------------------------------|
G |---------------------------------------------------|
D#|--17-14-14-17-14-14-14-14-14/15-15-15-15/17-14-14--|
A#|--x--x--x--x--x--x--x--x--x--x--x--x--x--x--x--x---|
F |--15-12-12-15-12-12-12-12-12/13-13-13-13/15-12-12--|
A#|---------------------------------------------------|
  |
C |---------------------------------------------------|
G |---------------------------------------------------|
D#|--14\12-12-12-12-12-12-12-12/14-14-14-14-14-14-14--|
A#|--x--x--x--x--x--x--x--x--x--x--x--x--x--x--x--x---|
F |--12\10-10-10-10-10-10-10-10/12-12-12-12-12-12-12--|
A#|---------------------------------------------------|
  |
C |---------------------------------------------------|
G |---------------------------------------------------|
D#|--10-10-10-10-10-10-10-10-9--9--9--9--9--9--9--9---|
A#|--x--x--x--x--x--x--x--x--x--x--x--x--x--x--x--x---|
F |--8--8--8--8--8--8--8--8--7--7--7--7--7--7--7--7---|
A#|---------------------------------------------------|



[2:00 - 2:28]

Tyler singing over techno-ish part. (No guitar)



[2:29 - 2:47]

C |---------------------------------------|---------------------------------------|
G |---------------------------------------|---------------------------------------|
D#|---------------------------------------|---------------------------------------|
A#|--00~--000-0-----0-0--0-0--------------|-------000-0-----0-0--0-0--------------|
F |--00~--000-0-----0-0--0-0--------------|-------000-0-----0-0--0-0--------------|
A#|--11~--111-1-----1-1--1-1--0-00--0~00--|--1br--111-1-----1-1--1-1--0-00--0~00--|
     ..   ... .     . .  . .                      ... .     . .  . .

C |------------------------------------------------------|
G |------------------------------------------------------|
D#|------------------------------------------------------|
A#|--0~-0---000-0-0~--0~--0-0-0~--0-0------7-------------|
F |--0~-0---000-0-0~--0~--0-0-0~--0-0--------8-0-5/6\5v--|
A#|--1~-1---111-1-1~--1~--1-1-1~--1-1----0---------------|
     .  .   ... . .   .   . . .   . .    .     .



[2:48 - 3:13]

  | Guitar 1 (x2)
C |------------------------|----1st----|----2nd----|
G |------------------------|playthrough|playthrough|
D#|------------------------|-----------|-----------|  <-- At this part on
A#|--3-3-3-3-3-3-3-3-3-3-3-|-----------|-3-3-3-3-3-|      1st playthrough,
F |--3-3-3-3-3-3-3-3-3-3-3-|-----------|-3-3-3-3-3-|      strum once then
A#|--3-3-3-3-3-3-3-3-3-3-3-|-5-5-5-5-5-|-3-3-3-3-3-|      slide down.
  |
C |-----------------------------------|
G |-----------------------------------|
D#|-----------------------------------|
A#|--5-5-5-5-5-5-5-5-5-5-5-5-5-7-7-7--|
F |--5-5-5-5-5-5-5-5-5-5-5-5-5-7-7-7--|
A#|--5-5-5-5-5-5-5-5-5-5-5-5-5-7-7-7--|
  |
C |-----------------------------------|
G |-----------------------------------|
D#|-----------------------------------|
A#|--8-8-8-8-8-8-8-8-8-8-8-8-8-8-8-8--|
F |--8-8-8-8-8-8-8-8-8-8-8-8-8-8-8-8--|
A#|--8-8-8-8-8-8-8-8-8-8-8-8-8-8-8-8--|
  |
C |-------------------------------------------|
G |-------------------------------------------|
D#|-------------------------------------------| Don't palm mute
A#|--10-10-10-10-10-10-10-10-7-7-7-7-7--------| second time
F |--10-10-10-10-10-10-10-10-7-7-7-7-7-0-0-0--|
A#|--10-10-10-10-10-10-10-10-7-7-7-7-7-0-0-0--|
                                       . . .


  | Guitar 2 (x2)
C |---------------------------------------------------|
G |---------------------------------------------------|
D#|--10-10-10-10-10-10-14-14-12-12-14-14-14-10-10-10--|
A#|--x--x--x--x--x--x--x--x--x--x--x--x--x--x--x--x---|
F |--8--8--8--8--8--8--12-12-10-10-12-10-10-8--8--8---|
A#|---------------------------------------------------|
  |
C |---------------------------------------------------|
G |---------------------------------------------------|
D#|--17-14-14-17-14-14-14-14-14/15-15-15-15/17-14-14--|
A#|--x--x--x--x--x--x--x--x--x--x--x--x--x--x--x--x---|
F |--15-12-12-15-12-12-12-12-12/13-13-13-13/15-12-12--|
A#|---------------------------------------------------|
  |
C |---------------------------------------------------|
G |---------------------------------------------------|
D#|--14\12-12-12-12-12-12-12-12/14-14-14-14-14-14-14--|
A#|--x--x--x--x--x--x--x--x--x--x--x--x--x--x--x--x---|
F |--12\10-10-10-10-10-10-10-10/12-12-12-12-12-12-12--|
A#|---------------------------------------------------|
  |
C |---------------------------------------------------|
G |---------------------------------------------------|
D#|--10-10-10-10-10-10-10-10-9--9--9--9--9--9--9--9---|
A#|--x--x--x--x--x--x--x--x--x--x--x--x--x--x--x--x---|
F |--8--8--8--8--8--8--8--8--7--7--7--7--7--7--7--7---|
A#|---------------------------------------------------|



[3:13 - 3:29]

C |----------------------------------------------------------|
G |----------------------------------------------------------|
D#|----------------------------------------------------------|
A#|----------------------------------------------------------|
F |------------------------00000-----------00000-------0-00--|
A#|--1br-0---1br-0--1br-0--00000-12v-0~-0~-00000-1br-0-0-00--|
                           .....           .....       . ..

C |----------------------------------------------------------|
G |----------------------------------------------------------|
D#|----------------------------------------------------------|
A#|----------------------------------------------------------|
F |------------------------00000-----------00000-------0-00--|
A#|--1br-0---1br-0--1br-0--00000-12v-0~-0~-00000-1br-0-0-00--|
                           .....           .....       . ..



[END]



************************************

| br  bend, release
| .   palm mute
| v   vibrato
| ~   held note
| b   bend
| x   mute string
| /   slide up
| \   slide down

************************************
Suggest correction
What's this?
You can suggest a correction to this tab. Community and Mods will review your correction and vote to approve or reject it.
comments
print report bad tab
3 comments total.
+1 reply
camdill 15 wrote on October 3 2012, 05:05 pm

For the part in the verse, instead of:

C |-----------| |----------------|
G |-----------| |----------------|
D#|------10---| and |----------------|
A#|------7----| |----------------|
F |--000-8-00-| |-0------4-------|
A#|--000---00-| |---1b-0---2b-0--|

I think it should be:

C |-----------| |----------------|
G |-----------| |----------------|
D#|------2----| and |----------------|
A#|------3----| |----------------|
F |--000-5-00-| |-0------4-------|
A#|--000---00-| |---1b-0---1b-0--|

Also, I think the first chord in the chorus might be open notes. What you have sounds just fine, but [000xxx] works too. It's hard to hear in the song.

Other than those three things, this tab is perfect!

0 reply
AsILayDying504 1,108 wrote on October 3 2012, 05:13 pm

Thanks camdill. Those corrections do seem to be right.

Also, another addition I'd like to make is at [1:21]...

Instead of doing...

C |-----------------------|
G |-----------------------|
D#|-----------------------|
A#|-----------------------|
F |--8\--0~---5-0---------|
A#|--8\--0~-------0~-000--|

Play...

C |-----------------------|
G |-----------------------|
D#|-----------------------|
A#|-----------------------|
F |--8\--0~---5-----------|
A#|--8\--0~-----8-0~-000--|

Just a one note change.

That's it for this tab. Thanks again camdill for the corrections.

0 reply
AsILayDying504 1,108 wrote on November 14 2012, 06:11 pm

I know I commented already, but I would just like to state that this tab has a few errors in it. I would recommend using the album tab for this particular song.

In the album tab for Black Diamonds I fixed all the little mistakes I made on the tab for this song.

Also, another note: All the tabs in the album tab are the same as they are in their specific tab (except for King of Amarillo, of course). The album tab just brings them all in one place for convenience.

guest
You may want to rate the tab now too:
select rating
Please do not post tabs as comments. Select "correction" instead!