Oops, an error
Loading. Please wait.

A Threnody For Modern Romance bass

version 2
version 2

Whole song

Interactive

898 views 3 this week
1 commentread comment
1 2 3 4 5
2 more votes to show rating
add to favorites
×
Save as Personal and add changes to this tab that will be seen only by you. Learn more ›
×
You can save this tab as Personal to edit and correct it or add notes. All changes will be seen only by you. Learn more »
launch autoscroll
font size
0
reset
guitar tuner
edit
Autoscroll
slow
fast
+/-
esc
set tempo
stop
Tuning: Drop C (CGCF)

Intro 
F|--------------------------------------------------------|
C|-------------------3-2--------------------------3-2---5-|
G|-----------------3-----5-3--------------------3-----5---|
C|-000-000-000-000-----------0--000-000-000-000-----------|
   
F|--------------------------------------------|
C|-------------------3-2----------------------|
G|-----------------3-----5-3----------1-1-3-3-|
C|-000-000-000-000------------5-5-3-3---------|
   

Verse

F|-----------------------------------------------------------|
C|-----------------------------------------------------------|
G|---------7------10---8---7--8-7-------------------3--3-3---|
C|--0-0--0---10-7----0---0---------5--5-5--5-5--3-3----------|

F|-------------------------------------------------------------------|
C|--------------------------------------------------------------- ---|
G|---------7------10---8---7--8-7--8-8-8-8-8-8-8-8-1212121210101010--|
C|--0-0--0---10-7----0---0-------------------------------------------| x2


Chorus

F|-------------------------------------------------------------------------|
C|-------------------------------------------------------------------------|
G|-------------------------------------------------------------------------|
C|-0-0-0-0-0-0-0-0-0-0-3-3-3-3-3-3-3-3-3-3-5-5-5-5-5-5-8-8-8-8-8-8-8-8-8---|

F|-----------------------------------------------------------------|
C|-----------------------------------------------------------------|
G|---------------------------------------------------3-3-3-3-3-3-3-|
C|--0-0-0-0-0-0-3-3-3-3-3-3-2-2-2-2-2-2-1-1-1-1-1-1-1--------------|




Breakdown !

F|-------------------------------------------------|
C|-------------------------------------------------|
G|-------------------------------------------------|
C|-000-000-000-000-000-000-000-000-0-0-0-0-0-0-0-0-|
   
F|----------------------------------------------------------------|
C|--------------------------------------------2-----------3-------|
G|------------------------------------------5-----3-5---5-----0-3-|
C|-00-0000-00-0000-00--00-0000-00-0000-00-0-----0-----0-----0-----| x2

Verse

Pre Chorus

F|-----------9--------------------------|
C|------7-10---10-9-7-------------------|
G|--0-7---------------3-3-3-3-5-5-5-5---|
C|--------------------------------------|


Chorus

Breakdown 2
F|------------------------------------------------------------------|
C|------------------------------------------------------------------|
G|------------------------------------------------7------10---8-----|
C|--0~--0-0-0-0-0--0~--0-0-0-0-0--0~--0-0-0-0-0-0---10-8----0---0---|


|-----------------------------------------------------------------|
|-----------------------------------------------------------------|
|-------------------------------------------------1-1--3--3-3-----|
|--0~--0-0-0-0-0--0~--0-0-0-0-0--0~--0-0-0-0-0-0------------------|

during  solo.
F|-----------------------------------------------------------|
C|-----------------------------------------------------------|
G|--5-5--3--1--1-1--1-1-1--3--3-3--3-3-3--7------10---8------|
C|------------------------------------------10-7----0---0----|


F|-----------------------------------------------------------|
C|-----------------------------------------------------------|
G|--5-5--3--1--1-1--1-1-1—3----------------------------------|
C|-------------------------3--3-3--3-3-3--0-0-0-0-0-0-0-0----|x2
   
Pause for 4 beats 

Then chorus


            
            
Suggest correction
Creating personal tab
Creating personal tab
You can edit any tab online and save it as your Personal.

You can edit, replace or remove any tab part or add personal notes – all changes will be seen only by you.

Personal tabs can be accessed anytime from any device, even offline.
Learn more »
Give kudos to tab author, rate the tab!
1 2 3 4 5
comments
print report bad tab
1 comment total.
0 reply
BaSSiSt_METAL 105 Jan 30, 2008 03:24 PM

hey awesome tab
sounds completly right
but the chorus i think needs a little fix up
i think it repeats then the second ending is different

guest
Wanna post a correction for this tab? Suggest correction