Oops, an error
Loading. Please wait.

Naenia tab

version 1
version 1

Whole song

Interactive

2,412 views 3 this week
4 commentsread comments
1 2 3 4 5
2 more votes to show rating
add to favorites
×
Save as Personal and add changes to this tab that will be seen only by you. Learn more ›
×
You can save this tab as Personal to edit and correct it or add notes. All changes will be seen only by you. Learn more »
launch autoscroll
font size
0
reset
how to read this tab
guitar tuner
edit
Autoscroll
slow
fast
+/-
esc
set tempo
stop
----------------------------------------------------------------------------
                             NAENIA - IT DIES TODAY
----------------------------------------------------------------------------
Tabbed by:KnivesIsEvil666       
Email: VashTheStampede60@softhome.net

Tuning: "Drop" C (C G C F A D)

This tab is for the rhythm part only. Ill add in the lead later.


Intro

e|-------------------------------------------------------------------------|
B|-------------------------------------------------------------------------|
G|-------------------------------------------------------------------------|
D|-5555--5555--XXXX--1111--XXXX--3333--XXXX--------------------------------|
A|-5555--5555--XXXX--1111--XXXX--3333--XXXX--------------------------------|
E|-5555--5555--XXXX--1111--XXXX--3333--XXXX--------------------------------|

Riff 1

e|-------------------------------------------------------------------------|
B|-------------------------------------------------------------------------|
G|------5h7p5-3h5p3------5h7-7h8p7------5----------------------------------|
D|-5555-------------5555-----------1111--7-5h7-3333-5~-3~------------------|
A|-5555-------------5555-----------1111--------3333------------------------|
E|-5555-------------5555-----------1111--------3333------------------------|

Riff 2

e|-------------------------------------------------------------------------|
B|-------------------------------------------------------------------------|
G|-------------------------------------------------------------------------|
D|-555555555555555-55577733-1111111111111111-333333333333333---------------|
A|-555555555555555-55577733-1111111111111111-333333333333333---------------|
E|-555555555555555-55577733-1111111111111111-333333333333333---------------|

P.M.--------------------------------------------------------|


Chorus Riff 1

e|-------------------------------------------------------------------------|
B|-------------------------------------------------------------------------|
G|-------------------------------------------------------------------------|
D|-5555555-5555555-1111111-3333333-----------------------------------------|
A|-5555555-5555555-1111111-3333333-----------------------------------------|
E|-5555555-5555555-1111111-3333333-----------------------------------------|

Chorus Riff 2

e|-------------------------------------------------------------------------|
B|-------------------------------------------------------------------------|
G|-------------------------------------------------------------------------|
D|-1111111-3333333-5555555-5555555-1111111-3333333-------------------------|
A|-1111111-3333333-5555555-5555555-1111111-3333333-------------------------|
E|-1111111-3333333-5555555-5555555-1111111-3333333-------------------------|


Riff 3

e|-------------------------------------------------------------------------|
B|-------------------------------------------------------------------------|
G|-------------------------------------------------------------------------|
D|-5555--XXXX-5555--XXXX--15\----------------------------------------------|
A|-5555--XXXX-5555--XXXX--15\----------------------------------------------|
E|-5555--XXXX-5555--XXXX--15\----------------------------------------------|

Riff 4

e|-------------------------------------------------------------------------|
B|-------------------------------------------------------------------------|
G|--------5--------------5-------------------------------------------------|
D|-111111--7-5h7--111111--7-5h7-5555555-5555555----------------------------|
A|-111111---------111111--------5555555-5555555----------------------------|
E|-111111---------111111--------5555555-5555555----------------------------|

P.M.----|         -----|


| /  slide up
| \  slide down
| h  hammer-on
| p  pull-off
| ~  vibrato
| +  harmonic
| x  Mute note
===============================================================================

            
            
Suggest correction
Creating personal tab
Creating personal tab
You can edit any tab online and save it as your Personal.

You can edit, replace or remove any tab part or add personal notes – all changes will be seen only by you.

Personal tabs can be accessed anytime from any device, even offline.
Learn more »
Give kudos to tab author, rate the tab!
1 2 3 4 5
comments
print report bad tab
4 comments total. Showing first comments.
0 reply
xeroinfinity 10 Mar 22, 2006 05:38 PM

Its kinda wrong, the intro isnt in in fours

it would be

5 5 5 5 x x x x
5 5 5 5 x x x x
5 5 5 5 x x x x

0 reply
as i lay dying1 10 Aug 30, 2006 07:40 PM

the riff1 is kinda wrong i think its supposed to be


|------------------------------------------------------------------|
|------------------------------------------------------------------|
|---5h7-3h5-2h3p2p0----5h7-7h8p7------5-----------5----5~~~3~~~~~~~|
|555----------------555-----------111--7-5h7--333---33-------------|
|555----------------555-----------111---------333---33-------------|
|555----------------555-----------111---------333---33-------------|

0 reply
SHRED_DA_PICKS 10 Jun 18, 2008 10:05 AM

wheres teh verse??? and if u listen to the song it isnt in fours its in 2's except for the Xd out notes its...xx x in that pattern.V
^------------------

guest
You may want to rate the tab now too:
select rating
Wanna post a correction for this tab? Suggest correction