Oops, an error
Loading. Please wait.

Sentiments Of You bass

272 views 1 this week
no commentswrite comment
1 2 3 4 5
2 more votes to show rating
add to favorites
×
Save as Personal and add changes to this tab that will be seen only by you. Learn more ›
×
You can save this tab as Personal to edit and correct it or add notes. All changes will be seen only by you. Learn more »
launch autoscroll
font size
0
reset
guitar tuner
edit
Autoscroll
slow
fast
+/-
esc
set tempo
stop
.  - palm mute           /  - slide up to
  - slide down to       ~  - vibrato
h  - hammer on           b  - Bend
p  - pull off            Suffixes for bend
t  - tap                 f  - full bend    h - half bend
ph - pinched harmonic    q  - quarter bend t - tap bend
*  - see comment         ^  - Hold bend    r release bend
x  - Stuccatto           ~  - vibrato bend
,  - slight palm mute    () - ghost note, sustained note
"  - tremolo note        <> - Trill

Beginning                                    x2
|-----------------------------------------------|
|-----------------------------------------------|
|-----------------------------------------------|
|-0-------0-0-0------0000----------00-0-0-0-0-0-|

                                                     x2
|-------------------------------------------------------|
|-------------------------------------------------------|
|-55555555-55555555-77777777-77777777-33333333-33333333-|
|-------------------------------------------------------|
  1e2e3e4e 1e2e3e4e 1e2e3e4e 1e2e3e4e 1e2e3e4e 1e2e3e4e 
                                     3x   
|---------------------------------------|-----------------|
|---------------------------------------|-----------------|
|-4h5p4---------5h7p5---------7h8p7-----|---8-7-5-7-5-4-5-|
|-------0-0-0-0-------0-0-0-0-------0-0-|-6---------------|

                                     3x 
|---------------------------------------|-------------------|
|---------------------------------------|-------------------|
|-4h5p4---------5h7p5---------7h8p7-----|---8-7-5-7-5-4-(5)-|
|-------0-0-0-0-------0-0-0-0-------0-0-|-6-----------------|

                                     3x  
|---------------------------------------|-----------------|
|---------------------------------------|-----------------|
|-4h5p4---------5h7p5---------7h8p7-----|---8-7-5-7-5-4-5-|
|-------0-0-0-0-------0-0-0-0-------0-0-|-6---------------|

                                     3x
|---------------------------------------|-------------------|
|---------------------------------------|-------------------|
|-4h5p4---------5h7p5---------7h8p7-----|---8-7-5-7-5-4-(5)-|
|-------0-0-0-0-------0-0-0-0-------0-0-|-6-----------------|

                                         
|----------------------------------------|---------|
|----------------------------------------|-8-7-5-7-|
|----------------------------------------|---------|
|-000--000-000-000--000-000-000--000-000-|---------|


|----------------------------------------|---------|
|----------------------------------------|---------|
|----------------------------------------|-8-7-5-4-|
|-000--000-000-000--000-000-000--000-000-|---------|


|---------|
|---------|
|---------|
|-6-5-3-3-|


Breakdown       x5 
|-----------------|
|-----------------|
|-----------------|
|-00000--00-00-00-|


|-------------------------------------------------------|
|-------------------------------------------------------|
|-----7h8-5h7-----7h8-5h7-----------7h8-5h7-----7h8-5h7-|
|-000---------000---------000000000---------000---------|
 

|-------------------------------------------------------------|
|-------------------------------------------------------------|
|----------7h8-5h7-----7h8-5h7-----------7h8-5h7-----10-8-7-8-|
|-00000088---------888---------888888888---------888----------|

 
|-------------------------------------------------------|
|-------------------------------------------------------|
|-----7h8-5h7-----7h8-5h7-----------7h8-5h7-----7h8-5h7-|
|-000---------000---------000000000---------000---------|


|-------------------------------------------------------------|
|----------------------------------------------------10-8-7-8-|
|----------7h8-5h7-----7h8-5h7----------7h8-5h7---------------|
|-00000088---------888---------888888888---------888----------|


|-----------------------------------------------------------|
|-----------------------------------------------------------|
|-----4-----5-----4---8---7---5-----4-----5-----8-7-5-7-5-4-|
|-0-0---0-0---0-0---0---0---0---0-0---0-0---0-0-------------|


|-----------------------------------------------------------------------|
|-----------------------------------------------------------8-7-5-7-5-3-|
|-----4-----5-----4---8---7---5-----4-----5-----8-7-5-7-5-4-------------|
|-0-0---0-0---0-0---0---0---0---0-0---0-0---0-0-------------------------|


|---------------------|----------------------|---|
|---------------------|----------------------|-5-|
|---------------------|----------------------|---|
|-8----7----0----3----|-8----7----0----11----|---|


|---------------------|
|---------------------|
|---------------------|
|-8----7----0----3----|


|---------------------|-------|
|---------------------|-5--7--|
|---------------------|-------|
|-8----7----0----3----|-------|


|-----------------------------|
|-----------------------------|
|----------------7----7-5--4--|
|-8----7----0-----------------|

                                             x2
|-----------------------------------------------|
|-----------------------------------------------|
|-----------------------------------------------|
|-0-------0-0-0------0000----------00-0-0-0-0-0-|

                                                     x2
|-------------------------------------------------------|
|-------------------------------------------------------|
|-55555555-55555555-77777777-77777777-33333333-33333333-|
|-------------------------------------------------------|
  1e2e3e4e 1e2e3e4e 1e2e3e4e 1e2e3e4e 1e2e3e4e 1e2e3e4e 

Hold Note
|------|
|------|
|------|
|-0----|


|-----------------------------------------------------------|
|-----------------------------------------------------------|
|-----------------------------------------------------------|
|-12\-0-0-0-0----000-0-0----0-000-000-0-0-0-0--000-0-0-0--1-|

            
            
Suggest correction
Creating personal tab
Creating personal tab
You can edit any tab online and save it as your Personal.

You can edit, replace or remove any tab part or add personal notes – all changes will be seen only by you.

Personal tabs can be accessed anytime from any device, even offline.
Learn more »
Give kudos to tab author, rate the tab!
1 2 3 4 5
comments
print report bad tab
guest
Wanna post a correction for this tab? Suggest correction