Oops, an error
Loading. Please wait.

Creature intro tab

version 1
version 1

Intro

Whole song

2,773 views 102 this week
3 commentsread comments
1 2 3 4 5
x 8
add to favorites
×
Save as Personal and add changes to this tab that will be seen only by you. Learn more ›
×
You can save this tab as Personal to edit and correct it or add notes. All changes will be seen only by you. Learn more »
launch autoscroll
font size
0
reset
how to read this tab
guitar tuner
edit
Autoscroll
slow
fast
+/-
esc
set tempo
stop
Author
Difficulty
[Intro]
(part 1)
e|-----------------------------------------|-----------------------------------------|
B|-----------------------------------------|-----------------------------------------|
G|-----------------------------------------|-----------------------------------------|
D|--------------------------9--9h11h9------|x2--------------6-----------------6------| (x2)
A|-----11-----9-----9h11----------------11-|----------7-----------7-----7---------7--|
E|--0------0-----0-------------------------|------0------0-----0-----0-----0---------|

(part 2)
e|----------------------------------------------------------------------------------------------------|
B|----------------------------------------------------------------------------------------------------|
G|----------------------------------------------------------------------------------------------------|
D|-11--9----------------------------9-9--------11-11-11-9-------9-------------------------------------|
A|--------11--9---------11--9--11--------------------------11------11---9h11--9----9--9/11--9--7--9--7|
E|----------------------------------------------------------------------------------------------------|

(part 3)
e|----------------------------------------------------------------------------------------------------|
B|----------------------------------------------------------------------------------------------------|
G|----------------------------------------------------------------------------------------------------|
D|------------------------9---11---9------------------------------------------------------------------|
A|---4/7---9h11----9-11-----------------11--9--11--9----7---------------------------------------------|
E|----------------------------------------------------------------------------------------------------|


************************************

| x  Dead note
| h  Hammer-on
| /  Slide up

************************************
Suggest correction
Creating personal tab
Creating personal tab
You can edit any tab online and save it as your Personal.

You can edit, replace or remove any tab part or add personal notes – all changes will be seen only by you.

Personal tabs can be accessed anytime from any device, even offline.
Learn more »
comments
print report bad tab
3 comments total.
0 reply
jaysegarcia98 10 Jan 23, 2017 08:39 PM

Hmm...and you learned thus by ear? Could you also upload a guitar cover of this song w/ the tabs? I think the chords are C#m and E...not sure.

guest
You may want to rate the tab now too:
select rating
Wanna post a correction for this tab? Suggest correction