Oops, an error
Loading. Please wait.

Creature tab

version 1
version 1

Whole song

889 views 54 this week
no commentswrite comment
1 2 3 4 5
x 4
add to favorites
×
Save as Personal and add changes to this tab that will be seen only by you. Learn more ›
×
You can save this tab as Personal to edit and correct it or add notes. All changes will be seen only by you. Learn more »
launch autoscroll
font size
0
reset
how to read this tab
guitar tuner
edit
Autoscroll
slow
fast
+/-
esc
set tempo
stop
[Intro]
(Guitar 1)
e |---------------------------------------------------------------------------|
B |---------------------------------------------------------------------------|
F#|----2-----0--0h2h5-----5-----5h7p5\2-----2-----0--0h2h5-----5-----5h7p5\2--|
D |---------------------------------------------------------------------------|
A |---------------------------------------------------------------------------|
E |-0-----0------------0-----0-----------0-----0------------0-----0-----------|
                                                                               x2
e |---------------------------------------------------------------------------|
B |---------------------------------------------------------------------------|
F#|----------2----------------(2br)-----------2----------------(2br)----------|
D |----2-----------2-----2--------2-----2-----------2-----2--------2----------|
A |-0-----0-----0-----0-----0--------0-----0-----0-----0-----0----------------|
E |---------------------------------------------------------------------------|
                (Only Bend-Release on the second time around)
(Guitar 2)
e |---------------------------------------------------------------------------|
B |---------------------------------------------------------------------------|
F#|-7~~~5~~~-----------------5--7-7-7-5---5-----------------------------------|
D |---------6~~~4~~~---6-4/6------------6-----6-4-6-4---4/6-4-------------4-6-|
A |----------------------------------------------------7------7-7/9-7--4-7----|
E |---------------------------------------------------------------------------|

e |---------------------------------------------------------------------------|
B |---------------------------------------------------------------------------|
F#|-----5-7-5-----------------------------------------------------------------|
D |-4-6-------6-4-6-4---------------------------------------------------------|
A |-------------------7-------------------------------------------------------|
E |---------------------------------------------------------------------------|

[Verse]
PM.............................................................................
e |-0-0-0-0-0-0-0-0-0-0-0-0-0-0-0-0-0-0-0-0-0-0-0-0-0-0-0-0-0-0-0-0-0-0-0-0-0-|
B |-0-0-0-0-0-0-0-0-0-0-0-0-0-0-0-0-0-0-0-0-0-0-0-0-0-0-0-0-0-0-0-0-0-0-0-0-0-|
F#|-0-0-0-0-0-0-0-0-0-0-0-0-0-0-0-0-0-0-2-2-2-2-2-2-2-2-2-2-0-0-0-0-0-0-0-0-0-|x2
D |-2-2-2-2-2-2-2-2-2-2-2-2-2-2-2-2-2-2-2-2-2-2-2-2-2-2-2-2-2-2-2-2-2-2-2-2-2-|
A |-2-2-2-2-2-2-2-2-2-2-2-2-2-2-2-2-2-2-0-0-0-0-0-0-0-0-0-0-0-0-0-0-0-0-0-0-0-|
E |-0-0-0-0-0-0-0-0-0-0-0-0-0-0-0-0-0-0---------------------------------------|

[Chorus]
      (Play around with the 2nd frets and open notes of the last 3 strings)
e |-0-0-0-0-0-0-0-0-0-0-0-0-0-0-0-0-0-0-0-0-0-0-0-0-0-0-0-0-0-0-0-0-0-0-0-0-0-|
B |-0-0-0-0-0-0-0-0-0-0-0-0-0-0-0-0-0-0-0-0-0-0-0-0-0-0-0-0-0-0-0-0-0-0-0-0-0-|
F#|-0-0-0-0-0-0-0-0-0-0-0-0-0-0-0-0-0-0-2-2-2-2-2-2-2-2-2-2-2-2-2-2-2-2-2-2-2-|x2
D |-2-2-2-2-2-2-2-2-2-2-2-2-2-2-2-2-2-2-2-2-2-2-2-2-2-2-2-2-2-2-2-2-2-2-2-2-2-|
A |-2-2-2-2-2-2-2-2-2-2-2-2-2-2-2-2-2-2-0-0-0-0-0-0-0-0-0-0-0-0-0-0-0-0-0-0-0-|       
E |-0-0-0-0-0-0-0-0-0-0-0-0-0-0-0-0-0-0---------------------------------------|

[Verse]
PM.............................................................................
e |-0-0-0-0-0-0-0-0-0-0-0-0-0-0-0-0-0-0-0-0-0-0-0-0-0-0-0-0-0-0-0-0-0-0-0-0-0-|
B |-0-0-0-0-0-0-0-0-0-0-0-0-0-0-0-0-0-0-0-0-0-0-0-0-0-0-0-0-0-0-0-0-0-0-0-0-0-|
F#|-0-0-0-0-0-0-0-0-0-0-0-0-0-0-0-0-0-0-2-2-2-2-2-2-2-2-2-2-0-0-0-0-0-0-0-0-0-|x2
D |-2-2-2-2-2-2-2-2-2-2-2-2-2-2-2-2-2-2-2-2-2-2-2-2-2-2-2-2-2-2-2-2-2-2-2-2-2-|
A |-2-2-2-2-2-2-2-2-2-2-2-2-2-2-2-2-2-2-0-0-0-0-0-0-0-0-0-0-0-0-0-0-0-0-0-0-0-|
E |-0-0-0-0-0-0-0-0-0-0-0-0-0-0-0-0-0-0---------------------------------------|

[Chorus]
      (Play around with the 2nd frets and open notes of the last 3 strings)
e |-0-0-0-0-0-0-0-0-0-0-0-0-0-0-0-0-0-0-0-0-0-0-0-0-0-0-0-0-0-0-0-0-0-0-0-0-0-|
B |-0-0-0-0-0-0-0-0-0-0-0-0-0-0-0-0-0-0-0-0-0-0-0-0-0-0-0-0-0-0-0-0-0-0-0-0-0-|
F#|-0-0-0-0-0-0-0-0-0-0-0-0-0-0-0-0-0-0-2-2-2-2-2-2-2-2-2-2-2-2-2-2-2-2-2-2-2-|x2
D |-2-2-2-2-2-2-2-2-2-2-2-2-2-2-2-2-2-2-2-2-2-2-2-2-2-2-2-2-2-2-2-2-2-2-2-2-2-|
A |-2-2-2-2-2-2-2-2-2-2-2-2-2-2-2-2-2-2-0-0-0-0-0-0-0-0-0-0-0-0-0-0-0-0-0-0-0-|
E |-0-0-0-0-0-0-0-0-0-0-0-0-0-0-0-0-0-0---------------------------------------|

[Breakdown]
(Guitar 1)
           (Basically the same just with a new strumming pattern)
e |-0-0-0-0-0-0-0-0-0-0-0-0-0-0-0-0-0-0-0-0-0-0-0-0-0-0-0-0-0-0-0-0-0-0-0-0-0-|
B |-0-0-0-0-0-0-0-0-0-0-0-0-0-0-0-0-0-0-0-0-0-0-0-0-0-0-0-0-0-0-0-0-0-0-0-0-0-|
F#|-0-0-0-0-0-0-0-0-0-0-0-0-0-0-0-0-0-0-2-2-2-2-2-2-2-2-2-2-2-2-2-2-2-2-2-2-2-|x2
D |-2-2-2-2-2-2-2-2-2-2-2-2-2-2-2-2-2-2-2-2-2-2-2-2-2-2-2-2-2-2-2-2-2-2-2-2-2-|
A |-2-2-2-2-2-2-2-2-2-2-2-2-2-2-2-2-2-2-0-0-0-0-0-0-0-0-0-0-0-0-0-0-0-0-0-0-0-|
E |-0-0-0-0-0-0-0-0-0-0-0-0-0-0-0-0-0-0---------------------------------------|

(Guitar 2)
e |---------------------------------------------------------------------------|
B |---------------------------------------------------------------------------|
F#|-7~~~~~~~~~~~~~~~~~~~~~9~~~~~~~~~~~~~~~~~~~/12~~~~~~~~~~~~~~~~~~~~7--------|
D |---------------------------------------------------------------------------|
A |---------------------------------------------------------------------------|
E |---------------------------------------------------------------------------|

[Verse]
(Guitar 1)
PM.............................................................................
e |-0-0-0-0-0-0-0-0-0-0-0-0-0-0-0-0-0-0-0-0-0-0-0-0-0-0-0-0-0-0-0-0-0-0-0-0-0-|
B |-0-0-0-0-0-0-0-0-0-0-0-0-0-0-0-0-0-0-0-0-0-0-0-0-0-0-0-0-0-0-0-0-0-0-0-0-0-|
F#|-0-0-0-0-0-0-0-0-0-0-0-0-0-0-0-0-0-0-2-2-2-2-2-2-2-2-2-2-0-0-0-0-0-0-0-0-0-|x2
D |-2-2-2-2-2-2-2-2-2-2-2-2-2-2-2-2-2-2-2-2-2-2-2-2-2-2-2-2-2-2-2-2-2-2-2-2-2-|
A |-2-2-2-2-2-2-2-2-2-2-2-2-2-2-2-2-2-2-0-0-0-0-0-0-0-0-0-0-0-0-0-0-0-0-0-0-0-|
E |-0-0-0-0-0-0-0-0-0-0-0-0-0-0-0-0-0-0---------------------------------------|

(Guitar 2)
e |---------------------------------------------------------------------------|
B |---------------------------------------------------------------------------|
F#|-------5--7-7-7-5---5---------------------------------------5--------------|
D |-6-4/6------------6----6-4-6-4----4/6-4-------------4-6-4-6---6-4-6-4------|
A |---------------------------------7-----7-7/9-7--4-7-------------------7----|
E |---------------------------------------------------------------------------|

e |---------------------------------------------------------------------------|
B |---------------------------------------------------------------------------|
F#|-7-5---5------------5-------7-5---5-7/10-10/12-12-10-7-10-7-5-7-5-------5--|
D |-----6---6-4--6-4-6---6-4-------6---------------------------------6-4-6---6|
A |--------------------------7------------------------------------------------|
E |---------------------------------------------------------------------------|

e |---------------------------------------------------------------------------|
B |---------------------------------------------------------------------------|
F#|-----5-7-5-----------------------------------------------------------------|
D |-4-6-------6~~-6-6-6-4-4-4-------------------------------------------------|
A |---------------------------------------------------------------------------|
E |---------------------------------------------------------------------------|

[Outro]
(Guitar 1)
     (Play around with the 2nd frets and open notes of the last 3 strings)
e |-0-0-0-0-0-0-0-0-0-0-0-0-0-0-0-0-0-0-0-0-0-0-0-0-0-0-0-0-0-0-0-0-0-0-0-0-0-|
B |-0-0-0-0-0-0-0-0-0-0-0-0-0-0-0-0-0-0-0-0-0-0-0-0-0-0-0-0-0-0-0-0-0-0-0-0-0-|
F#|-0-0-0-0-0-0-0-0-0-0-0-0-0-0-0-0-0-0-2-2-2-2-2-2-2-2-2-2-2-2-2-2-2-2-2-2-2-|x2
D |-2-2-2-2-2-2-2-2-2-2-2-2-2-2-2-2-2-2-2-2-2-2-2-2-2-2-2-2-2-2-2-2-2-2-2-2-2-|
A |-2-2-2-2-2-2-2-2-2-2-2-2-2-2-2-2-2-2-0-0-0-0-0-0-0-0-0-0-0-0-0-0-0-0-0-0-0-|       
E |-0-0-0-0-0-0-0-0-0-0-0-0-0-0-0-0-0-0---------------------------------------|

(Guitar 2)
      (Note in brackets is the final note, its only played once at the end)
e |---------------------------------------------------------------------------|
B |---------------------------------------------------------------------------|
F#|---5---5---5-7-7-7-5---5---5---5---5-7-7-7-5-------------------------------|
D |-6---6---6-----------6---6---6---6----------(6)----------------------------|
A |---------------------------------------------------------------------------|
E |---------------------------------------------------------------------------|


************************************

|(n)  Ghost note
| h   Hammer-on
| p   Pull-off
| br  Bend release
| /   Slide up
| \   Slide down
| ~   Vibrato
| PM  Palm mute

************************************

            
            
Suggest correction
Creating personal tab
Creating personal tab
You can edit any tab online and save it as your Personal.

You can edit, replace or remove any tab part or add personal notes – all changes will be seen only by you.

Personal tabs can be accessed anytime from any device, even offline.
Learn more »
comments
print report bad tab
guest
You may want to rate the tab now too:
select rating
Wanna post a correction for this tab? Suggest correction