Oops, an error
Loading. Please wait.

Hold On Mr Reaper Tab

1 view 1 this week
no commentswrite comment
1 2 3 4 5
3 more votes to show rating
add to favorites
launch autoscroll
font size
0
reset
how to read this tab
guitar tuner
Autoscroll
slow
fast
+/-
esc
set tempo
stop
Help us to improve Ultimate-Guitar.com Take our survey!
×
Author
Difficulty
Tuning
intermediate
D A D G B E
About this tab version
First tab of this song XD This is also my first tab, if you have any suggestions please also contact me. Was this info helpful? Yes No
[Intro]

e|---------------------------------------------------------------------------|
B|---------------------------------------------------------------------------|
G|--7------9------10-------------7-------9------10----5----------------------|
D|--x------x------x--------------x-------x------x-----x----------------------|
A|--5------7------8--------------5-------7------8-----3----------------------|
E|---------------------------------------------------------------------------|
Repeat, Strumming this time x2


[Verse]

e|---------------------------------------------------------------------------|
B|----------------------------------15h17h18---15h17h18---21-----------------|
G|-----------------------------------------------------------19-repeat-------|
D|---------------------------------------------------------------------------|
A|-000-----------------------------------------------------------------------|
E|-000-----------------------------------------------------------------------|
   ...   Palm muted Chugs
e|---------------------------------------------------------------------------|
B|---------------------------------------------------------------------------|
G|---------------------------------------------------------------------------|
D|--------------7-----3------5----------------7-------3--------9-------------| Repeat once, 
A|---------------------------------------------------------------------------|Then chugs
E|-000000----------------0---------00000-------------------0-----------------|
   ......                .         .....                   .

[Chorus]

e|---------------------------------------------------------------------------|
B|---------------------------------------------------------------------------|
G|-----------------x4--------------------------------------------------------|
D|-0-------------------------------------------------------------------------|
A|-0-x8---0-x8-------------0-x8----------------------------------------------|
E|-0------0----------------0-------------------------------------------------|

[Interlude .]                . Guitar 1
e|---------------------------------------------------------------------------|
B|--17---------17---------17b---17----------17-------17s19-------------------|
G|------17---------17---------------17---------17----------------------------|
D|---------15----------15---------------15--------15----------x2-------------|
A|---------------------------------------------------------------------------|
E|---------------------------------------------------------------------------|
        Repeat Intro, Then second time Play this tremelo picking
e|---------------------------------------------------------------------------|
B|-----17----------17s19---17--------17----------17s19-----------------------|
G|---------17------------------17--------17----------------------------------|
D|--------------15-----------------15--------15------------------------------|
A|---------------------------------------------------------------------------|
E|---------------------------------------------------------------------------|

e|---------------------------------------------------------------------------|
B|------15h17h18---21-----x6-------------------------------------------------|
G|--------------------19-----------------------------------------------------|
D|---------------------------------------------------------------------------|
A|---------------------------------------------------------------------------|
E|---------------------------------------------------------------------------|

[Outro]
e|---------------------------------------------------------------------------|
B|---------------------------------------------------------------------------|
G|---------------------------------------------------------------------------|
D|---------------------------------------------------------------------------|
A|-------------------------------00----0-------------------------------------|
E|-000--000--000--000--000--000--00----0-------------------------------------|
   ...  ...  ...  ...  ...  ...  ..    . Chugs rest of the song

If you have any questions contact me at masonbythewaters@gmail.com



************************************

| x  Dead note
| h  Hammer-on
| .  Staccato
| b  Bend

************************************
Suggest correction
Give kudos to tab author, rate the tab!
1 2 3 4 5
comments
print report bad tab
guest
You may want to rate the tab now too:
select rating
Wanna post a correction for this tab? Suggest correction