Oops, an error
Loading. Please wait.

Stamp On The Ground chords

version 1
version 1

Whole song

Interactive

433 views 3 this week
no commentswrite comment
1 2 3 4 5
2 more votes to show rating
add to favorites
×
Save as Personal and add changes to this tab that will be seen only by you. Learn more ›
×
You can save this tab as Personal to edit and correct it or add notes. All changes will be seen only by you. Learn more »
launch autoscroll
font size
0
reset
transpose
0
reset
display chords
guitar tuner
edit
Autoscroll
slow
fast
+/-
esc
set tempo
stop
Author
Difficulty
Strumming
There is no strumming pattern for this song yet. and get +5 IQ
[Intro]
Bm

[Melodie]
e|-------------------------------------|--------------------------------------|
B|-7--7--7-----10---10-----------------|-7--7--7-----10---10---------------8--|
G|----------7------7-----7-9---7-6---7-|----------7------7-----7-9---7-9------|
D|-------------------------------------|--------------------------------------|
A|-------------------------------------|--------------------------------------|
E|-------------------------------------|--------------------------------------|

e|-------------------------------------|--------------------------------------|
B|-7--7--7-----10---10-----------------|--7--7--7-----7-7---7---8-7-----------|
G|----------7------7-----7-9---7-6---7-|----------7------9-----------9-7---6--|
D|-------------------------------------|--------------------------------------|
A|-------------------------------------|--------------------------------------|
E|-------------------------------------|--------------------------------------|

[Intro II]
Bm G D A

[Melody II]
e|-------------------------------------|--------------------------------------|
B|-7--7--7-----10---10-----------------|-7--7--7-----10---10---------------8--|
G|----------7------7-----7-9---7-6---7-|----------7------7-----7-9---7-9------|
D|-------------------------------------|--------------------------------------|
A|-------------------------------------|--------------------------------------|
E|-------------------------------------|--------------------------------------|

e|-------------------------------------|--------------------------------------|
B|-7--7--7-----10---10-----------------|--7--7--7-----7-7---7---8-7-----------|
G|----------7------7-----7-9---7-6---7-|----------7------9-----------9-7---6--|
D|-------------------------------------|--------------------------------------|
A|-------------------------------------|--------------------------------------|
E|-------------------------------------|--------------------------------------|

[Chorus]
Bm             G
Stamp on the ground
D            A
Jump, jump, jump, jump
Bm            G
Moving all around
A           Bm
Tep tep da dow

Bm             G
Stamp on the ground
D            A
Jump, jump, jump, jump
Bm            G
Moving all around
A           Bm
We're jumping all around

[Interlude]
Bm       G   D        A
Dop dop dop, Dop dop dop dodo
Bm       G   A        Bm
Dop dop dop, Dop dododow

Bm       G   D        A
Dop dop dop, Dop dop dop dodo
Bm       G   N.C.
Dop dop dop, Jumping all around

[Main Theme]
Bm, G, D, A, Bm, G, A, Bm (4x)
Dop Dop (2nd time)

[Melodie Main Theme]
e|-------------------------------------|--------------------------------------|
B|-----7--8----------------------------|----7--8------------------------------|
G|-----------------7--9--7-6-----------|------------9--7-6--------------------|
D|--9-----------7----------------------|--9-----------------10----------------|
A|-------------------------------------|--------------------------------------|
E|-------------------------------------|--------------------------------------|

e|-------------------------------------|--------------------------------------|
B|-----7--8----------------------------|----7--8------------------------------|
G|-----------------7--9--7-6-----------|------------9-9-7-6-------------------|
D|--9-----------7----------------------|--9-----------------10----------------|
A|-------------------------------------|--------------------------------------|
E|-------------------------------------|--------------------------------------|

[Verse II]
N.C.            Bm
We're sending out an invitation
Bm
To everyone in every nation.
Bm
But don't sleep get on the run
Bm
Stop thinkin' and have some fun!

[Chorus]
Bm             G
Stamp on the ground
D            A
Jump, jump, jump, jump
Bm            G
Moving all around
A           Bm
Tep tep da dow

Bm             G
Stamp on the ground
D            A
Jump, jump, jump, jump
Bm            G
Moving all around
A           Bm
We're jumping all around

Bm             G
Stamp on the ground
D            A
Jump, jump, jump, jump
Bm            G
Moving all around
A           Bm
We're jumping all around

[Interlude]
Bm       G   D        A
Dop dop dop, Dop dop dop dodo
Bm       G   A        Bm
Dop dop dop, Dop dododow

Bm       G   D        A
Dop dop dop, Dop dop dop dodo
Bm       G   N.C.
Dop dop dop, Jumping all around

[Verse II]
Bm
So come and join our love foundation
Bm
Go feel the heat, the sweet vibration
Bm
'cause we are about to ignite
Bm
And we wanna go out tonight!

[Intro II]
Bm, G, D, A

[Melody II]
e|-------------------------------------|--------------------------------------|
B|-7--7--7-----10---10-----------------|-7--7--7-----10---10---------------8--|
G|----------7------7-----7-9---7-6---7-|----------7------7-----7-9---7-9------|
D|-------------------------------------|--------------------------------------|
A|-------------------------------------|--------------------------------------|
E|-------------------------------------|--------------------------------------|

e|-------------------------------------|--------------------------------------|
B|-7--7--7-----10---10-----------------|--7--7--7-----7-7---7---8-7-----------|
G|----------7------7-----7-9---7-6---7-|----------7------9-----------9-7---6--|
D|-------------------------------------|--------------------------------------|
A|-------------------------------------|--------------------------------------|
E|-------------------------------------|--------------------------------------|

[Chorus]
Bm             G
Stamp on the ground
D            A
Jump, jump, jump, jump
Bm            G
Moving all around
A           Bm
Tep tep da dow

Bm             G
Stamp on the ground
D            A
Jump, jump, jump, jump
Bm            G
Moving all around
A           Bm
We're jumping all around 

[Interlude]
Bm       G   D        A
Dop dop dop, Dop dop dop dodo
Bm       G   A        Bm
Dop dop dop, Dop dododow

Bm       G   D        A
Dop dop dop, Dop dop dop dodo
Bm       G   N.C.
Dop dop dop, Jumping all around

[Main Theme]
Bm, G, D, A, Bm, G, A, Bm (4x)

[Melodie Main Theme]
e|-------------------------------------|--------------------------------------|
B|-----7--8----------------------------|----7--8------------------------------|
G|-----------------7--9--7-6-----------|------------9--7-6--------------------|
D|--9-----------7----------------------|--9-----------------10----------------|
A|-------------------------------------|--------------------------------------|
E|-------------------------------------|--------------------------------------|

e|-------------------------------------|--------------------------------------|
B|-----7--8----------------------------|----7--8------------------------------|
G|-----------------7--9--7-6-----------|------------9-9-7-6-------------------|
D|--9-----------7----------------------|--9-----------------10----------------|
A|-------------------------------------|--------------------------------------|
E|-------------------------------------|--------------------------------------|

N.C.
Jumping all around
Suggest correction
Creating personal tab
Creating personal tab
You can edit any tab online and save it as your Personal.

You can edit, replace or remove any tab part or add personal notes – all changes will be seen only by you.

Personal tabs can be accessed anytime from any device, even offline.
Learn more »
Give kudos to tab author, rate the tab!
1 2 3 4 5
comments
print report bad tab
guest
You may want to rate the tab now too:
select rating
Wanna post a correction for this tab? Suggest correction