Oops, an error
Loading. Please wait.

21 Years Bass Tab

299 views 3 this week
no commentswrite comment
1 2 3 4 5
please rate
add to favorites
launch autoscroll
font size
0
reset
guitar tuner
Tab Pro tools
  • play this tab
  • loop segment
  • change instrument
  • show fretboard
  • metronome
Autoscroll
slow
fast
+/-
esc
set tempo
stop
Contributor
Difficulty
Tuning
intermediate
D# G# C# F# A# D#
Hey guys.. in response to my video in utube, i'll tabbed this one.
I met Sibbi at a festival somewhere backstage and i asked him how to play it, so 
it's 100 % correct.
And for sure, it's my first tab. ;)
Artist: Itchy Poopzkid
Album : Heart to believe (Where are my Records?)
Tuning: 1/2 step down

Intro (and the verse)
"I read it in the paper ... "
F#|----------------------------------------------|
C#|-------4-0-0-2--------------------------------|
G#|--2-2-2--------4-4-0-0------------------------|
D#|----------------------------------------------|

Pre-Chorus
"What the hell is going on?"
F#|---------------------------------------|
C#|---------------------------------------|
G#|---------------------------------------|
D#|---3-3-3-3-3-3-5-5-5-5-5---------------|

Chorus
"21 years of hope behind me ..."
F#|---------------------------------------------------------|
C#|---------------------------------------------------------|
G#|--5-5-5-5-5-5-7-7-7-7-7-7--------------------------------|
D#|--------------------------7-7-7-7-7-3-3-3-3-3-3----------|

Last Chorus
F#|---------------------------------------------------------|
C#|---------------------------------------------------------|
G#|--3-3-3-3-3-3-5-5-5-5-5-5--------------------------------|
D#|--------------------------5-5-5-5-5-5-1-1-1-1-1----------|

End 
F#|----------------------------------|
C#|----------------------------------|
G#|----------------------------------|
D#|--0~~~~~~-------------------------|
comments
We did not receive enough feedback on this tab! Please rate:
print report bad tab
1 2 3 4 5
I want to post or [tab]
guest
You may want to rate the tab now too:
select rating
Please do not post tabs as comments. Select "correction" instead!