Oops, an error
Loading. Please wait.

21 Years Tab

1,453 views 6 this week
no commentswrite comment
1 2 3 4 5
please rate
add to favorites
launch autoscroll
font size
0
reset
how to read this tab
guitar tuner
Autoscroll
slow
fast
+/-
esc
set tempo
stop
Help us to improve Ultimate-Guitar.com Take our survey!
×
Contributor
Difficulty
novice
Artist: Itchy Poopzkid
Album: Heart To Believe
Year: 2005
Tuning: Standart (Except for the last Chord :P)

You can download this song here: (LEGAL AND FOR FREE!)

http://neu.itchypoopzkid.de/media.html

Intro (No Vocals)

E[----x----------------------------]
B[----x----------------------------]
G[----x----------------------------]
D[----x-------8-----4-----6--------]   (X2!!)
A[----x-------8-----4-----6--------]
E[----x-------6-----2-----4--------]

1 per chord, down, heavy

Preverse I (No Vocals)

E[--------------------]
B[--------------------]
G[--------------------]
D[--8888888888866666--]   (X2!!)
A[--8888888888866666--]
E[--6666666666644444--]

Verse I ("I read it in the paper, I see it on TV ...")

(Same as Preverse I)

E[--------------------]
B[--------------------]
G[--------------------]
D[--8888888888866666--]   (X3!!)
A[--8888888888866666--]
E[--6666666666644444--]

("[...] while innocents keep dying and children learn to fight [...]")

E[----------------------]
B[----------------------]
G[----------------------]
D[--888888888886666444--]
A[--888888888886666444--]
E[--666666666664444222--]


Pre Chours I ("[...] what the hell is going on?! [...]")

E[-----------------------------]
B[-----------------------------]
G[-----------------------------]
D[--44444444444-666666-6-6-66--]
A[--44444444444-666666-6-6-66--]
E[--22222222222-444444-4-4-44--]

Preverse II ("No Vocals")

E[--------------------]
B[--------------------]
G[--------------------]
D[--8888888888866666--]   (X2!!)
A[--8888888888866666--]
E[--6666666666644444--]

Verse II (" [...] I´m ready to surrender, my head bangs against a wall [...]")

(Same as Preverse II)

E[--------------------]
B[--------------------]
G[--------------------]
D[--8888888888866666--]   (X3!!)
A[--8888888888866666--]
E[--6666666666644444--]

("[...] Trust and hope is gone and there´s just one thing left to say [...]")

E[----------------------]
B[----------------------]
G[----------------------]
D[--888888888886666444--]
A[--888888888886666444--]
E[--666666666664444222--]


Pre Chorus II ("[...] what the hell is going on?! [...]")

E[-----------------------------]
B[-----------------------------]
G[-----------------------------]
D[--44444444444-666666-6-6-66--]
A[--44444444444-666666-6-6-66--]
E[--22222222222-444444-4-4-44--]


Chorus I ("[...] 21 years of hope behind me [...]")

E[----------------------------------------------]
B[----------------------------------------------]
G[--66666666666-8888888888888-66666666666-------]
D[--66666666666-8888888888888-66666666666-6666--]  (X2!!)
A[--44444444444-6666666666666-44444444444-6666--]
E[----------------------------------------4444--]


Alternative Intro ("No Vocals")

E[----x----------------------------------]
B[----x----------------------------------]
G[----x----------------------------------]
D[----x-------888-----444-----666--------]   (X2!!)
A[----x-------888-----444-----666--------]
E[----x-------666-----222-----444--------]

Down, Up, Down, Very fast!

Preverse III ("No Vocals")

E[--------------------]
B[--------------------]
G[--------------------]
D[--8888888888866666--]   (X2!!)
A[--8888888888866666--]
E[--6666666666644444--]

Verse III ("[...] But I don´t wanna give up. So I'll speak up to you [...]")

(Same as Preverse III)

E[--------------------]
B[--------------------]
G[--------------------]
D[--8888888888866666--]   (X3!!)
A[--8888888888866666--]
E[--6666666666644444--]

("[...] The only thing that stops me is that bullet in my head [...]")

E[----------------------]
B[----------------------]
G[----------------------]
D[--888888888886666444--]
A[--888888888886666444--]
E[--666666666664444222--]


Pre Chorus III ("[...] what the hell is going on?! [...]")

E[-----------------------------]
B[-----------------------------]
G[-----------------------------]
D[--44444444444-666666-6-6-66--]
A[--44444444444-666666-6-6-66--]
E[--22222222222-444444-4-4-44--]


Chorus II ("[...] 21 years of hope behind me [...]")

E[----------------------------------------------]
B[----------------------------------------------]
G[--66666666666-8888888888888-66666666666-------]
D[--66666666666-8888888888888-66666666666-6666--]  (X2!!)
A[--44444444444-6666666666666-44444444444-6666--]
E[----------------------------------------4444--]

Bridge ("[...] 21 years... [...]")

E[---------------]
B[---------------]
G[--66-----6/8---]
D[--66-----6/8---]
A[--44-----4/6---]
E[---------------]

Just mess around a bit on the 3 sides with your nails, nearly sound like the original 
i do it ;)


Chorus III ("[...] 21 years of hope behind me [...]")
E[----------------------------------------------]
B[----------------------------------------------]
G[--66666666666-8888888888888-66666666666-------]
D[--66666666666-8888888888888-66666666666-6666--]  (X2!!)
A[--44444444444-6666666666666-44444444444-6666--]
E[----------------------------------------4444--]


Alternative Chorus & Outro  ("[...] 21 years of hope behind me [...]")

E[-------------------------------------------------]
B[-------------------------------------------------]
G[--44444444444-6666666666666-44444444444----------]
D[--44444444444-6666666666666-44444444444-4444--1--]  (X2!!)
A[--22222222222-4444444444444-22222222222-4444--1--]
E[----------------------------------------2222--x--] (Let ring)

Last Chord is Eb5! But the whole song is standart tuning, so it doesn't make any sence 
down for the whole song! Just don't play the E-String! ;)

If you have got the Album (Heart To Believe) you should listen to the song for a long 
because there's a "hidden track" at the end if you did not yet notice. :D
comments
We did not receive enough feedback on this tab! Please rate:
print report bad tab
1 2 3 4 5
I want to post or [tab]
guest
You may want to rate the tab now too:
select rating
Please do not post tabs as comments. Select "correction" instead!