Oops, an error
Loading. Please wait.

Against The Wall Tab

version 1
version 1

Whole song

Interactive

3,353 views 3 this week
no commentswrite comment
1 2 3 4 5
excellent!
x 6
add to favorites
launch autoscroll
font size
0
reset
how to read this tab
guitar tuner
Tab Pro tools
  • play this tab
  • loop segment
  • change instrument
  • show fretboard
  • metronome
Autoscroll
slow
fast
+/-
esc
set tempo
stop
Contributor
Difficulty
Tuning
novice
D# G# C# F# A# D#
                     Itchy Poopzkid - Against the wall

tabbed by: Sibbi-Guitar

Tuning: half step down

Legend: 2^3^2 = Anschlag - pull-on - pull-off

Chords:

  C  C1  C2  Am   F   G   A5   G5  G#5

D#--0--0---0----0---1---3-------------------------------|
A#--1--1---1----1---1---3-------------------------------|
F#--0--0---0----2---2---0-------------------------------|
C#--2--0---3----2---3---0---7----5----6-----------------|
G#--3--3---3----0---3---2---7----5----6-----------------|
D#------------------1---3---5----3----4-----------------|


Intro:

--------|------------------------------------------|
--------|------------------------------------------|
--------|----0---0---0---0---0---0---0---0---0---0-|
--2^3^2-|------2---0---0---0---3---3---2---2---2---|
--------|--3---------------------------------------|
--------|------------------------------------------|

-----------------------------------|-------------|
-----------------------------------|-------------|
----0---0---0---0---0---0---0---0--|-------------|
------3---3---5---5-------2---2----|---2--2^3^2--| und Intro wiederholen
----------------------3------------|-------------|
--1--------(3)---------------------|-------------|
von 1 auf (3) sliden


Verse 1:

   C            C1
Wasted time, wasted words,
   C2                    C
Pent-up thoughts until it hurts
         F               G             C
I fake a smile and I try to find my way out
    C                  C1
It Feels so bad, so bad to see
             C2                 C
That you are way different from me
           F                   G             C
I can see myself watching you vanish in the crowd


Pre-Chorus/Chorus:

Am              F             C
And you ask me what it's all about
         G
I don't know the answer
Am             F                G
Keep starring right against the wall
Am        F                 C
I bite my lips and cut my tongue,
          G
Words are so damn useless
F              G
You just don't understand at all

(bei "all" mit dem Intro Part starten, aber ohne den Auftakt) 2 x


Verse 2:
          C                C1
Gleams of hope are passing by
           C2             C                F
And now I know I won't rely on anyone no more
     G                C
It always turns out wrong
          C                 C1
So pack your bags, take good care,
          C2              C
don't look back – become aware
         F                 G            C
Nothing's real, I guess we knew it all along


Pre-Chorus/Chorus:

Am              F             C
And you ask me what it's all about
         G
I don't know the answer
Am             F                G
Keep starring right against the wall
Am        F                 C
I bite my lips and cut my tongue,
          G
Words are so damn useless
F              G
You just don't understand at all

(bei "all" mit dem Intro Part starten, aber ohne den Auftakt) 2 x


Bridge:

A5                     G5
It always starts quite fine
                 F5
And everytime it feels alright
  G5                    G#5     A5
I fall down again and I lose my trust
          G5
in anyone around…
                    F5
I’d tell you how it hurts inside,
G
  but you just don’t understand at all.


(bei "all" mit dem Intro Part starten, aber ohne den Auftakt) 3 x

Am Ende der 3ten Wiederholung aufhören mit den Akkorden F - G - C ~~
comments
print report bad tab
I want to post or [tab]
guest
You may want to rate the tab now too:
select rating
Please do not post tabs as comments. Select "correction" instead!