Oops, an error
Loading. Please wait.

And Ill Walk Away Bass Tab

version 1
version 1

Whole song

Interactive

1,105 views 1 this week
no commentswrite comment
1 2 3 4 5
please rate
add to favorites
launch autoscroll
font size
0
reset
guitar tuner
Autoscroll
slow
fast
+/-
esc
set tempo
stop
Help us to improve Ultimate-Guitar.com Take our survey!
×
Contributor
haffe13 128
Intro (when drums come in)
G|-------------------------6-----6--------|
D|----------------------------------------|
A|---------------------4-4---4-4----xx----|
E|----14>4-4-4-4-4-4-4--------------------|

Riff 1
G|-------------------------6-----6--------|
D|----------------------------------------|
A|---------------------4-4---4-4----------|
E|-------4-4-4-4-4-4-4--------------------| 2x

Riff 2
G|------------------------|
D|---------6-6-4----------|
A|---------------6-5-4----|
E|----4-4-----------------|4x

G|-------------------------------------|
D|-------------------------------------|
A|---------------------4--4---4-4------|
E|----4-4-4-4-4-4-4--------------------|

Riff 2.1
G|-------------------------------------|
D|-------------------------------------|
A|---------------------4---4-4-4-4--4--|
E|---44-44-44-44-44-44-----------------|

Chorus
G|-------------------------------------|
D|-------------------------------------|
A|------------4-4-4-4----------4-4-4-4-|
E|----4-4-4-4----------6-6-6-6---------| 2x

Bridge
G|------------------------------|
D|------------------------------|
A|------6-----6-----6-----------|
E|----4---4-4---4-4---4---------|

G|-------------------------------------|
D|-------------------------------------|
A|---4-4-4-4-4---------4-4-4-4---------|
E|-------------4-4-4-4--------6-6-6-6--|

Order:
Intro
Riff 1
Riff 2 2x
Chorus
Riff 1
Riff 2.1
Chorus
Bridge
Chorus
Riff 1
Outro
A|------x-x--------------------|
E|------x-x-x------------------|
Suggest correction What's this?
You can suggest a correction to this tab. Community and Mods will review your correction and vote to approve or reject it.
comments
We did not receive enough feedback on this tab! Please rate:
print report bad tab
1 2 3 4 5
I want to post or [tab]
guest
You may want to rate the tab now too:
select rating
Please do not post tabs as comments. Select "correction" instead!