Oops, an error
Loading. Please wait.

Another Song The Djs Hate Tab

version 2
version 2

Whole song

235 views 1 this week
no commentswrite comment
1 2 3 4 5
please rate
add to favorites
launch autoscroll
font size
0
reset
how to read this tab
guitar tuner
Autoscroll
slow
fast
+/-
esc
set tempo
stop
Help us to improve Ultimate-Guitar.com Take our survey!
×
Author
Difficulty
Tuning
novice
D# G# C# F# A# D#
Itchy Poopzkid - Another Song The DJ's Hate
Tuning:half Step down

Tabbed it because the Intro and the Solo were wrong.. although it was not easy to 
figure out how the shown riff is played in the verse/chorus etc..
This should be more correct.

Main Riff:
d#|----------------------------------|
A#|----------------------------------|
F#|----------------------------------|
C#|-----------------7--6--5----------|
G#|-----5--5--8--5-----------8-------|
D#|----------------------------------|

Intro: (Palm Muted)
d#|----------------------------------------------------------|
A#|----------------------------------------------------------|
F#|---7--7--7--7--7--7--7--7--7--7--7--7--7--7--7--7---------|
C#|---7--7--7--7--7--7--7--7--7--7--7--7--7--7--7--7--77-6---|
G#|---5--5--5--5--5--5--5--5--5--5--5--5--5--5--5--5--77-6---|
D#|---------------------------------------------------55-4---|

d#|----------------------------------------------------------|
A#|----------------------------------------------------------|
F#|---------------------------------------5--5--5--5---------|
C#|---5--5--5--5--5--5--5--5--3--3--3--3--5--5--5--5---------|
G#|---5--5--5--5--5--5--5--5--3--3--3--3--3--3--3--3---------|
D#|---3--3--3--3--3--3--3--3--1--1--1--1---------------------|


Pre-Verse: (Part 1) + Main Riff
d#|--------------------------------------------------|
A#|--------------------------------------------------|
F#|---7--7--7--7--7--7-5-7--7--7--7--7--7--7---------|
C#|---7--7--7--7--7--7-5-7--7--7--7--7--7--7--77-6---|
G#|---5--5--5--5--5--5-3-5--5--5--5--5--5--5--77-6---|
D#|-------------------------------------------55-4---|

Pre-Verse: (Part 2) + Main Riff
d#|----------------------------------------------------------|
A#|----------------------------------------------------------|
F#|---------------------------------------5--5--5--5---------|
C#|---5--5--5--5--5--5--5--5--3--3--3--3--5--5--5--5---------|
G#|---5--5--5--5--5--5--5--5--3--3--3--3--3--3--3--3---------|
D#|---3--3--3--3--3--3--3--3--1--1--1--1---------------------|

Verse: (Part 1 at repeating + Main Riff)
d#|----------------------------------------------------------|
A#|----------------------------------------------------------|
F#|---7--7--7--7--7--7--7--7--7--7--7--7--7--7--7--7---------|
C#|---7--7--7--7--7--7--7--7--7--7--7--7--7--7--7--7--77-6---|
G#|---5--5--5--5--5--5--5--5--5--5--5--5--5--5--5--5--77-6---|
D#|---------------------------------------------------55-4---|

Verse: (Part 2)
d#|----------------------------------------------------------|
A#|----------------------------------------------------------|
F#|---------------------------------------5--5--5--5---------|
C#|---5--5--5--5--5--5--5--5--3--3--3--3--5--5--5--5---------|
G#|---5--5--5--5--5--5--5--5--3--3--3--3--3--3--3--3---------|
D#|---3--3--3--3--3--3--3--3--1--1--1--1---------------------|

Bridge:
d#|-------------|
A#|-------------|
F#|-------------|
C#|---5--8--10--|
G#|---5--8--10--|
D#|---3--6--8---|

Chorus: (2x)
d#|----------------------------------------------------------|
A#|----------------------------------------------------------|
F#|---7--7--7--7--7--7--7--7--7--7--7--7--7--7--7--7---------|
C#|---7--7--7--7--7--7--7--7--7--7--7--7--7--7--7--7--77-6---|
G#|---5--5--5--5--5--5--5--5--5--5--5--5--5--5--5--5--77-6---|
D#|---------------------------------------------------55-4---|

d#|----------------------------------------------------------|
A#|----------------------------------------------------------|
F#|---------------------------------------5--5--5--5---------|
C#|---5--5--5--5--5--5--5--5--3--3--3--3--5--5--5--5---------|
G#|---5--5--5--5--5--5--5--5--3--3--3--3--3--3--3--3---------|
D#|---3--3--3--3--3--3--3--3--1--1--1--1---------------------|


Pre-Verse
Verse
Bridge
Chorus (2x)

Interlude: (2x)
d#|----------------------------------------------------------|
A#|----------------------------------------------------------|
F#|---------------------------------------5--5--6--6---------|
C#|---5--5--5--5--5--5--5--5--3--3--3--3--5--5--6--6---------|
G#|---5--5--5--5--5--5--5--5--3--3--3--3--3--3--4--4---------|
D#|---3--3--3--3--3--3--3--3--1--1--1--1---------------------|


Solo:

d#|-------------------------------------------------------------------|
A#|-------------------------------------------------------------------|
F#|------------------10-----------------10-----------------------10---|
C#|---12-10-12-10-12-----12-10-12-10-12----12-10--12-10-12-10-12------|
G#|-------------------------------------------------------------------|
D#|-------------------------------------------------------------------|

d#|-----------|---------------------------------------------------|
A#|--12b13b12-|-------12--10--------------------------------------|
F#|-----------| (x2)---------12-----12--10-----10-----------------|
C#|-----------|-----------------------------12----12-11-12-11-9-8-|
G#|-----------|---------------------------------------------------|
D#|-----------|---------------------------------------------------|

Intro (2x)
Chorus (2x)
Pre-Verse
Suggest correction
Give kudos to tab author, rate the tab!
1 2 3 4 5
comments
print report bad tab
guest
You may want to rate the tab now too:
select rating
Wanna post a correction for this tab? Suggest correction