Oops, an error
Loading. Please wait.

Down Down Down Bass Tab

version 1
version 1

Whole song

1,376 views 1 this week
no commentswrite comment
1 2 3 4 5
3 more votes to show rating
add to favorites
launch autoscroll
font size
0
reset
guitar tuner
Autoscroll
slow
fast
+/-
esc
set tempo
stop
Help us to improve Ultimate-Guitar.com Take our survey!
×
Author
Difficulty
Tuning
novice
D# G# C# F# A# D#
Itchy Poopzkid - Down Down Down Bass Tab

Intro&Chorus
F#|------------5---5-------------------|
C#|--------------------5---5---3---3---|
G#|-0-0-0-0-2-3-3-3-3------------------|
D#|-------------------3-3-3-3-1-1-1-1--|

Verse
F#|-----------------------------------|
C#|-----------------------------------|
G#|-0-0-0----12/-3-3-3----------------|
D#|--------------------3-3-3-3-1-1-1-1|

Pre Chorus
F#|-----------------------------------|
C#|-----------------------------------|
G#|-5-5-5-5-0-0-0-0-5-5-5-5-8-8-8-8---|
D#|-----------------------------------|
Suggest correction
Give kudos to tab author, rate the tab!
1 2 3 4 5
comments
print report bad tab
guest
You may want to rate the tab now too:
select rating
Wanna post a correction for this tab? Suggest correction