Oops, an error
Loading. Please wait.

Down Down Down Tab

939 views 3 this week
no commentswrite comment
1 2 3 4 5
excellent!
x 4
add to favorites
launch autoscroll
font size
0
reset
how to read this tab
guitar tuner
Autoscroll
slow
fast
+/-
esc
set tempo
stop
Help us to improve Ultimate-Guitar.com Take our survey!
×
Author
Difficulty
Tuning
novice
D# G# C# F# A# D#
Itchy Poopzkid - Down Down Down
Tuning: Half Step Down

Intro
eb|-0--0--0--2--0--0--0--0--3--3--3--0--1--1--1--|
Bb|-1--1--1--4--1--1--1--1--3--3--3--0--1--1--1--|
Gb|-2--2--2--4--0--0--0--0--0--0--0--0--2--2--2--|
Db|-2--2--2--4--2--2--2--2--0--0--0--2--3--3--3--| x2
Ab|-0--0--0--2--3--3--3--3--2--2--2--2--3--3--3--|
Eb|-------------------------3--3--3--0--1--1--1--|

Verse
eb|-0--0--0--------0---------3---------1------|
Bb|-1--1--1----------1---------3---------1----|
Gb|-2--2--2------0----------------------------|
Db|-2--2--2----2-----------0---------3--------| 2x
Ab|-0--0--0--3-----------2---------3----------|
Eb|--------------------3---------1------------|

Bridge
eb|-1--1--1--0--0--0--1--1--1--0--0--1--1--3--|
Bb|-3--3--3--1--1--1--3--3--3--0--0--1--1--3--|
Gb|-2--2--2--0--2--2--2--2--2--0--0--2--2--0--|
Db|-0--0--0--2--2--2--0--0--0--2--2--3--3--0--|
Ab|----------3--0--0-----------2--2--3--3--2--|
Eb|´---------------------------0--0--1--1--3--|

Chorus
eb|-0--0--0--0--0--0--0--0--3--3--3--3--1--1--1--1--|
Bb|-1--1--1--1--1--1--1--1--3--3--3--3--1--1--1--1--|
Gb|-2--2--2--2--0--0--0--0--0--0--0--0--2--2--2--2--|
Db|-2--2--2--2--2--2--2--2--0--0--0--0--3--3--3--3--| x4
Ab|-0--0--0--0--3--3--3--3--2--2--2--2--3--3--3--3--|
Eb|-------------------------3--3--3--3--1--1--1--1--|

Verse

Bridge 2
eb|-1--1--1--0--0--0--1--1--1--0--0--0--3--3--------|
Bb|-3--3--3--1--1--1--3--3--3--1--1--1--3--3--------|
Gb|-2--2--2--0--2--2--2--2--2--0--2--2--0--0--------|
Db|-0--0--0--2--2--2--0--0--0--2--2--2--0--0--------|
Ab|----------3--0--0-----------3--0--0--2--2--------|
Eb|-------------------------------------3--3--------|

(bridge part 2)
eb|-1--1--1--0--0--0--1--1--1--0--0--1--1--3--------|
Bb|-3--3--3--1--1--1--3--3--3--0--0--1--1--3--------|
Gb|-2--2--2--0--2--2--2--2--2--0--0--2--2--0--------|
Db|-0--0--0--2--2--2--0--0--0--2--2--3--3--0--------|
Ab|----------3--0--0-----------2--2--3--3--2--------|
Eb|´---------------------------0--0--1--1--3--------|

Chorus
Bridge Part 2

Interlude (No Vocals)
eb|-0~---0~---0~---1~-----1--1--1--1-|
Bb|-1~---1~---1~---1~-----1--1--1--1-|
Gb|-2~---0~---0~---2~-----2--2--2--2-|
Db|-2~---2~---0~---3~--x4-3--3--3--3-| 
Ab|-0~---3~---2~---3~-----3--3--3--3-|
Eb|-----------3~---1~-----1--1--1--1-|

Chorus

End
eb|--0--0--0--0--0--3~--|
Bb|--1--1--1--1--0--3~--|
Gb|--2--2--2--2--0--0~--|
Db|--2--2--2--2--2--0~--| 
Ab|--0--0--0--0--2--2~--|
Eb|--------------0--3~--|
Suggest correction
comments
print report bad tab
guest
You may want to rate the tab now too:
select rating
Wanna post a correction for this tab? Suggest correction