Oops, an error
Loading. Please wait.

Down Down Down Bass Tab

version 2
version 2

Whole song

1,122 views 1 this week
no commentswrite comment
1 2 3 4 5
3 more votes to show rating
add to favorites
launch autoscroll
font size
0
reset
guitar tuner
Autoscroll
slow
fast
+/-
esc
set tempo
stop
Help us to improve Ultimate-Guitar.com Take our survey!
×
Author
Difficulty
Tuning
novice
D# G# C# F# A# D#
Intro:
Gb|---------5--5--------------|
Db|----------------------30---|
Ab|-----2-33-33------------32-|
Eb|-555---------333-0-11------|  2x

Verse:
|---------5-----------|----------5-----------|
|--------------5----3-|---------------5----3-|
|-------3-------------|-----10/3-------------|
|-555--------3----1---|-555---------3----1---|

Pre-Chorus 1:
|-------------------------------------|
|-------------7-7777------------------|
|-5-5-5-7------------5-5-5-7--8888-10-|
|---------5-5-------------------------|

Chorus:
|-------------------------------------|
|--------------------------------30---|
|----------3-3-3-3-----------------32-|
|-5-5-5-5-----------3-3-3-3--1-1------|  4x

Verse

Pre-Chorus 2:
|------------------------------------------|
|-------------7-7777-------------7-5555----|
|-5-5-5-7------------5-5-5-7---------------|
|---------5-5----------------5-5-----------|

|-------------------------------------|
|-------------7-7777------------------|
|-5-5-5-7------------5-5-5-7--8888-10-|
|---------5-5-------------------------|

Chorus

Pre-Chorus 1

Bridge:
|------------------|    |-------|
|------------------|    |-------|
|------3-----------|    |-------|
|-5---------3----1-| x4 |-11111-|

Chorus

Outro:
|-----------|
|-----------|
|-----------|
|-5-5-5-0-3-|
Suggest correction
Give kudos to tab author, rate the tab!
1 2 3 4 5
comments
print report bad tab
guest
You may want to rate the tab now too:
select rating
Wanna post a correction for this tab? Suggest correction