Oops, an error
Loading. Please wait.

Down Down Down Chords

version 2
version 2

Whole song

2,565 views 6 this week
2 commentsread comments
1 2 3 4 5
accurate
x 3
add to favorites
launch autoscroll
font size
0
reset
transpose
0
reset
display chords
guitar tuner
Tab Pro tools
  • play this tab
  • loop segment
  • change instrument
  • show fretboard
  • metronome
×
Best way to learn
"Down Down Down"
Autoscroll
slow
fast
+/-
esc
set tempo
stop
Contributor
Difficulty
Tuning
intermediate
D# G# C# F# A# D#
***********************************
| Itchy Poopzkid                   |
| Down Down Down (sung by Sibbi)   |
| Album: Lights out London (2011)  |
| Tabbed by: Hrothgar128           |
***********************************

Tune down 1/2 step!

Q=Quarter
E=Eight
S=Sixteenth
L=tied note

     Q    E  E  E  S E  S E     E  E  Q    E  E  E  E   
E||--------------------------|-------------------------|
B||--1----1--1--1----3-------|-------------------------|
G||--2----2--2--2----4----5--|--L--5--5----5--5--5--5--|
D||--2----2--2--2----4----5--|--L--5--5----5--5--5--5--|
A||--0----0--0--0----2----3--|--L--3--3----3--3--3--3--|
E||--------------------------|-------------------------|


  Q    E  E  E  S E  S E     E  E  Q    E  E  E  E    
--------------------------|-------------------------||
--------------------------|-------------------------||
-----------------------2--|--L--2--2----2--2--2--2--||
--5----5--5--5----2----3--|--L--3--3----3--3--3--3--||
--5----5--5--5----2----3--|--L--3--3----3--3--3--3--||
--3----3--3--3----0----1--|--L--1--1----1--1--1--1--||

Am      C             G                      F
   Reality- Something evil´s lurking in your room 
Am       C            G                      F
   Eternally- Like a birthday on the day of doom

              Am                    F
You know your future slowly gets in form 
         Am                  G
When the Purgatory keeps you warm

             Am                     C        
You´re going down down down falling endlessly
          G                        F           
No one´s around round round looks like hell to me
             Am                     C 
You´re going down down down falling endlessly 
                G                    F
No one´s around round round with the best of wishes
        Am 
from me
   C            G          F        Am
Oo-oooh-ooh Oh-OhOh OhOh-Oooh Oh-Oh-Oh

   C            G          F        Am
Oo-oooh-ooh Oh-OhOh OhOh-Oooh Oh-Oh-Oh

        C                G                F
Apparently those living corpes match your flaking
     Am
skin 
            C                 G               
Did you believe the day would come when time is
         F   
wearing thin

              Am                    F
You know your future slowly gets in form 
          Am                 G
When the Purgatory keeps you warm 
        Am                           F
You realize there´s not much left to do 
          Am               G
When the obituary features you

             Am                     C        
You´re going down down down falling endlessly
          G                        F           
No one´s around round round looks like hell to me
             Am                     C 
You´re going down down down falling endlessly 
                G                    F
No one´s around round round with the best of wishes       
       Am 
from me
   C            G          F        Am
Oo-oooh-ooh Oh-OhOh OhOh-Oooh Oh-Oh-Oh

   C            G          F        Am
Oo-oooh-ooh Oh-OhOh OhOh-Oooh Oh-Oh-Oh

              Am                    F
You know your future slowly gets in form 
          Am                 G
When the Purgatory keeps you warm 
        Am                           F
You realize there´s not much left to do 
          Am               G
When the obituary features you

[[4x, play notes on guitar and whistle them at the same time]]
E||--------------3--0----|----------5--3----0-----|-----0-----------------||
B||----------------------|---------------------3--|-----------------------||
G||--2--------0----------|-------0----------------|--------2--------2--0--|| 
D||----------------------|------------------------|-----------------------||     
A||----------------------|------------------------|-----------------------||
E||----------------------|------------------------|-----------------------||


You´re going down down down falling endlessly
          G                        F           
No one´s around round round looks like hell to me
             Am                     C 
You´re going down down down falling endlessly 
                G                    F
No one´s around round round with the best of wishes        
       Am 
from me
   C            G          F        Am
Oo-oooh-ooh Oh-OhOh OhOh-Oooh Oh-Oh-Oh

   C            G          F        Am  - G [[one stroke, let ring]]
Oo-oooh-ooh Oh-OhOh OhOh-Oooh Oh-Oh-Oh
comments
We did not receive enough feedback on this tab! Please rate:
print report bad tab
1 2 3 4 5
2 comments total.
0 reply
McBert wrote on October 21 2015, 02:26 pm

Dm Am
You know your future slowly gets in form
Dm F G
When the Purgatory keeps you warm...

0 reply
st.paulianton wrote on December 8 2015, 06:19 am

der part bei "you know your future slowly gets in form" ist falsch. da gehört ein c#m hin und kein am

I want to post or [tab]
guest
You may want to rate the tab now too:
select rating
Please do not post tabs as comments. Select "correction" instead!