Oops, an error
Loading. Please wait.

I Gotta Get Away Bass Tab

40 views 3 this week
no commentswrite comment
1 2 3 4 5
3 more votes to show rating
add to favorites
launch autoscroll
font size
0
reset
guitar tuner
Autoscroll
slow
fast
+/-
esc
set tempo
stop
Help us to improve Ultimate-Guitar.com Take our survey!
×
Author
Tuning
D# G# C# F# A# D#
Itchy Poopzkid
I Gotta Get Away
Six
2015


[Intro] 0:11

F#|-------------------------------------------------------------------|
C#|-------------------------------------------------------------------|
G#|----------------------------------5-5-5-5-5-5-5-5-5-5-5-5-5-5-5-5--|
D#|--2-2-2-2-2-2-2-2-2-2-2-2-2-2-2-2----------------------------------|

F#|----------------------------------------------------------------------|
C#|----------------------------------------------------------------------|
G#|----------------------------------4-4-4-4-4-4-4-4-7-7-7-7-7-7-7-7-9\--|
D#|--5-5-5-5-5-5-5-5-5-5-5-5-5-5-5-5-------------------------------------|


[Verse] 0:38

F#|---------------------------------------------------------------|
C#|---------------------------------------------------------------|
G#|--------------------------------2-2--0-2-0-2-0-2-2--0-2-0-2-0--|
D#|--2-2--0-2-0-2-0-2-2--0-2-0-2-0--------------------------------|

F#|-----------------------------------------------------------|
C#|-----------------------------------------------------------|
G#|--5-5--4-5-4-5-4-5-5--4-5-4-5-4-4-4--2-4-2-4-2-4--2--0-----|
D#|--------------------------------------------------------4--|


[Pre-Chorus] 0:48

F#|-------------------|
C#|-------/4--2--0----|
G#|--2-------------4--|
D#|-------------------|


[Chorus] 0:54

F#|-------------------------------------------------------------------|
C#|-------------------------------------------------------------------|
G#|----------------------------------5-5-5-5-5-5-5-5-5-5-5-5-5-5-5-5--|
D#|--2-2-2-2-2-2-2-2-2-2-2-2-2-2-2-2----------------------------------|

F#|----------------------------------------------------------------------|
C#|----------------------------------------------------------------------|
G#|----------------------------------4-4-4-4-4-4-4-4-7-7-7-7-7-7-7-7-9\--|
D#|--5-5-5-5-5-5-5-5-5-5-5-5-5-5-5-5-------------------------------------|


[Verse] 1:21

F#|---------------------------------------------------------------|
C#|---------------------------------------------------------------|
G#|--------------------------------2-2--0-2-0-2-0-2-2--0-2-0-2-0--|
D#|--2-2--0-2-0-2-0-2-2--0-2-0-2-0--------------------------------|

F#|-----------------------------------------------------------|
C#|-----------------------------------------------------------|
G#|--5-5--4-5-4-5-4-5-5--4-5-4-5-4-4-4--2-4-2-4-2-4--2--0-----|
D#|--------------------------------------------------------4--|


[Pre-Chorus] 1:31

F#|-------------------|
C#|-------/4--2--0----|
G#|--2-------------4--|
D#|-------------------|


[Chorus] 1:36

F#|-------------------------------------------------------------------|
C#|-------------------------------------------------------------------|
G#|----------------------------------5-5-5-5-5-5-5-5-5-5-5-5-5-5-5-5--|
D#|--2-2-2-2-2-2-2-2-2-2-2-2-2-2-2-2----------------------------------|

F#|-------------------------------------------------------------------|
C#|-------------------------------------------------------------------|
G#|----------------------------------4-4-4-4-4-4-4-4-7-7-7-7-7-7-7-7--|
D#|--5-5-5-5-5-5-5-5-5-5-5-5-5-5-5-5----------------------------------|


[Solo] 1:47

F#|---------------------------------------------------------------|
C#|---------------------------------------------------------------|
G#|--------------------------------2-2--0-2-0-2-0-2-2--0-2-0-2-0--|
D#|--2-2--0-2-0-2-0-2-2--0-2-0-2-0--------------------------------|

F#|-----------------------------------------------------------|
C#|-----------------------------------------------------------|
G#|--5-5--4-5-4-5-4-5-5--4-5-4-5-4-4-4--2-4-2-4-2-4--2--0-----|
D#|--------------------------------------------------------4--|


[Pre-Chorus] 1:58

F#|-------------------|
C#|-------/4--2--0----|
G#|--2-------------4--|
D#|-------------------|


[Chorus] 2:06

F#|-------------------------------------------------------------------|
C#|-------------------------------------------------------------------|
G#|----------------------------------5-5-5-5-5-5-5-5-5-5-5-5-5-5-5-5--|
D#|--2-2-2-2-2-2-2-2-2-2-2-2-2-2-2-2----------------------------------|

F#|-------------------------------------------------------------------|
C#|-------------------------------------------------------------------|
G#|----------------------------------4-4-4-4-4-4-4-4-7-7-7-7-7-7-7-7--|
D#|--5-5-5-5-5-5-5-5-5-5-5-5-5-5-5-5----------------------------------|

F#|-------------------------------------------------------------------|
C#|-------------------------------------------------------------------|
G#|----------------------------------5-5-5-5-5-5-5-5-5-5-5-5-5-5-5-5--|
D#|--2-2-2-2-2-2-2-2-2-2-2-2-2-2-2-2----------------------------------|

F#|-------------------------------------------------------------------|
C#|-------------------------------------------------------------------|
G#|----------------------------------4-4-4-4-4-4-4-4-7-7-7-7-7-7-7-7--|
D#|--5-5-5-5-5-5-5-5-5-5-5-5-5-5-5-5----------------------------------|

[Outro] 2:27

F#|------------------|    |-----|
C#|------------------|    |-----|
G#|------------------| x3 |-----|
D#|--2-2--0-2-0-2-0--|    |--2--|


************************************


| /   Slide up
| \   Slide down


************************************
Suggest correction
Give kudos to tab author, rate the tab!
1 2 3 4 5
comments
print report bad tab
guest
You may want to rate the tab now too:
select rating
Wanna post a correction for this tab? Suggest correction