Oops, an error
Loading. Please wait.

Its Tricky Bass Tab

708 views 1 this week
no commentswrite comment
1 2 3 4 5
2 more votes to show rating
add to favorites
launch autoscroll
font size
0
reset
guitar tuner
Autoscroll
slow
fast
+/-
esc
set tempo
stop
Help us to improve Ultimate-Guitar.com Take our survey!
×
Author
Itchy Poopzkid
It's Tricky


Intro (0:00):

G|--------------------|
D|--------------------|
A|--------------------|
D|-----3--------------|

Chorus (0:12):

G|----------------------------------------|
D|----------------------------------------|
A|----------------------------------------|
D|-3-3-3--1-3---3-3-013---36367-88866686--| x2

Verse 1 (0:26):

G|--------------------------------------|
D|--------------------------------------|
A|--------------1-----------------------|
D|-3-3-3-013-3-3---3-3-3-01-88866686----|

G|---------------------------------|
D|---------------------------------|
A|---------------------------------|
D|-3-3---3-3---3-3---88866686------|

Chorus (0:40)

Verse 2 (0:55):

G|--------------------------------------|
D|--------------------------------------|
A|--------------1-----------------------|
D|-3-3-3-013-3-3---3-3-3-01-88866686----| x2

Chorus (1:08)

Solo (1:23):
G|--------------------------------------------------|
D|--------------------------------------------------|
A|--------------------------------------------------|
D|--3---------------------------------88866686------|

G|--------------------------------------|
D|--------------------------------------|
A|--------------1-----------------------|
D|-3-3-3-013-3-3---3-3-3-01-88866686----| 

G|--------------------------------------------------|
D|--------------------------------------------------|
A|--------------------------------------------------|
D|--3---------------------------------88866686------|

Verse (1:44) x1

Chorus (2:06)


Please check my basscover of the song: http://www.youtube.com/watch?v=_6NK-w1N01Y
Suggest correction
Give kudos to tab author, rate the tab!
1 2 3 4 5
comments
print report bad tab
guest
You may want to rate the tab now too:
select rating
Wanna post a correction for this tab? Suggest correction