Oops, an error
Loading. Please wait.

Its Tricky Tab

version 2
version 2

Whole song

276 views 1 this week
no commentswrite comment
1 2 3 4 5
please rate
add to favorites
launch autoscroll
font size
0
reset
how to read this tab
guitar tuner
Autoscroll
slow
fast
+/-
esc
set tempo
stop
Help us to improve Ultimate-Guitar.com Take our survey!
×
Author
Difficulty
Tuning
novice
D# G# C# F# A# D#
Itchy Poopzkid - It's Tricky
Tuning: Half-Step-Down

Intro
eb|------------|
Bb|------------|
Gb|------------|
Db|-4----------|
Ab|-4----------|
Eb|-2-x-x-x-x--|

Chorus
eb|---------------------------------------------------|
Bb|---------------------------------------------------|
Gb|---------------------------------------------------|
Db|-4-4-4--2-4--4-4-2-3-4-----------------------------|
Ab|-4-4-4--2-4--4-4-2-3-4----------1-2-2-2-0-0-0-2----|
Eb|-2-2-2--0-2--2-2-0-1-2--2-5-2-5-----------------0--|

eb|----------------------------------------------------|
Bb|----------------------------------------------------|
Gb|----------------------------------------------------|
Db|-4-4-4--2-4--4-4-2-3-4----------------------------4-|
Ab|-4-4-4--2-4--4-4-2-3-4----------1-2-2-2-0-0-0-2---4-|
Eb|-2-2-2--0-2--2-2-0-1-2--2-5-2-5-----------------0-2-|

Verse (so spend some time..)
eb|-------------------|
Bb|-------------------|
Gb|-------------------|
Db|-------------------|
Ab|-2-2-2-0-0-0-2-----|
Eb|---------------0---|

Chorus
Verse
Chorus

Solo (random scratching)
eb|---------------------------------------------------------------------------|
Bb|---------------------------------------------------------------------------|
Gb|-x-x-x-x-x--x-x-x-x-x--x-x-x-x-x--x-x-x-x-x-x-x-x-x-x-x-x-x-x-x------------|
Db|-x-x-x-x-x--x-x-x-x-x--x-x-x-x-x--x-x-x-x-x-x-x-x-x-x-x-x-x-x-x------------|
Ab|-x-x-x-x-x--x-x-x-x-x--x-x-x-x-x--x-x-x-x-x-x-x-x-x-x-x-x-x-x-x------------|
Eb|---------------------------------------------------------------------------|

While fast scratching
eb|--------------------|
Bb|--------------------|
Gb|--------------------|
Db|---4----------4-----|
Ab|--------------------|
Eb|-2---2--0-1-2---2---|

Chorus
Suggest correction
Give kudos to tab author, rate the tab!
1 2 3 4 5
comments
print report bad tab
guest
You may want to rate the tab now too:
select rating
Wanna post a correction for this tab? Suggest correction