Oops, an error
Loading. Please wait.

Its Tricky tab

version 3
version 3

Whole song

146 views 1 this week
no commentswrite comment
1 2 3 4 5
3 more votes to show rating
add to favorites
×
Save as Personal and add changes to this tab that will be seen only by you. Learn more ›
×
You can save this tab as Personal to edit and correct it or add notes. All changes will be seen only by you. Learn more »
launch autoscroll
font size
0
reset
how to read this tab
guitar tuner
edit
Autoscroll
slow
fast
+/-
esc
set tempo
stop
-------------------------------------------------------------------------------
                             ITs TRICKY - Itchy Poopzkid
-------------------------------------------------------------------------------
Tabbed by: obersepp
E-mail:
Tuning: Drop D

Chorus Intro 
e|---------------------------|
B|---------------------------|
G|---------------------------|
D|---8-8-8-6-6-6-8-8-3-------|
A|---8-8-8-6-6-6-8-8-3-------|
D|---8-8-8-6-6-6-8-8-3-------|


Chorus Part 1
e|-----------------------------------|
B|-----------------------------------|
G|-----------------------------------|
D|--3--3--3----2-3---3---3-1-2-3-----|
A|--3--3--3----2-3---3---3-1-2-3-----|
D|--3--3--3----2-3---3---3-1-2-3-----|
Chorus Part 2
e|-----------------------------------|
B|-----------------------------------|
G|-----------------------------------|
D|--3-6-3-6-6-8-8-8-6-6-6-8-3--------|
A|--3-6-3-6-6-8-8-8-6-6-6-8-3--------|
D|--3-6-3-6-6-8-8-8-6-6-6-8-3--------|


Bridge Part 1
e|-----1----------1------------1-----------------------|
B|-----------------------------------------------------|
G|-----------------------------------------------------|
D|--3----3---2-3----3---8-2-3----3-----8-8-8-6-6-6-8-3-|
A|--3--------2-3--------8-2-3----------8-8-8-6-6-6-8-3-|
D|--3--------2-3--------8-2-3----------8-8-8-6-6-6-8-3-|


Bridge Part 2
e|-----------------------------------------------------|
B|-----------------------------------------------------|
G|-----------------------------------------------------|
D|--3*-3*---3*-3*----2-3-----3*-3*-----8-8-8-6-6-6-8-3-|
A|--3*-3*---3*-3*----2-3-----3*-3*-----8-8-8-6-6-6-8-3-|
D|--3*-3*---3*-3*----2-3-----3*-3*-----8-8-8-6-6-6-8-3-|

3* = one full ocatave deeper (use some effekt for that)


Order:
Strum one
0
0
0
3
3
3
on first note (this SPEECH..)

Chorus Part 1 (it's tricky to rock...)
Chorus Part 2 

Verse1 (only bass guitar)

Chorus Intro
Chorus Part 1 
Chorus Part 2

Verse 2

Chorus Part 1
Chorus Part 2

Solo (just use your pick and scratch on the strings)

Bridge Part 1
Bridge Part 2

3rd Verse (play this for the half of it)
Bridge Part 1
Bridge Part 2

Chorus Part 1
Chorus Part 2

            
            
Suggest correction
Creating personal tab
Creating personal tab
You can edit any tab online and save it as your Personal.

You can edit, replace or remove any tab part or add personal notes – all changes will be seen only by you.

Personal tabs can be accessed anytime from any device, even offline.
Learn more »
Give kudos to tab author, rate the tab!
1 2 3 4 5
comments
print report bad tab
guest
You may want to rate the tab now too:
select rating
Wanna post a correction for this tab? Suggest correction