Oops, an error
Loading. Please wait.

Last Goodbye Tab

88 views 1 this week
no commentswrite comment
1 2 3 4 5
please rate
add to favorites
launch autoscroll
font size
0
reset
how to read this tab
guitar tuner
Tab Pro tools
  • play this tab
  • loop segment
  • change instrument
  • show fretboard
  • metronome
×
Best way to learn
"Last Goodbye"
Autoscroll
slow
fast
+/-
esc
set tempo
stop
Contributor
Difficulty
Tuning
novice
D# G# C# F# A# D#
Itchy Poopzkid - Last Goodbye
Tuning: Half-Step-Down

Verse
eb|-4---2---2---4---2---2---4---2---2---4---2---2---|
Bb|-4---4---2---4---4---2---4---4---2---4---4---2---|
Gb|-4---4---3---4---4---3---4---4---3---4---4---3---|
Db|-6---4---4---6---4---4---6---4---4---6---4---4---|
Ab|-6---2---4---6---2---4---6---2---4---6---2---4---|
Eb|-4-------2---4-------2---4-------2---4-------2---|

Pre-Chorus
eb|---------------------------------------------------------------------------|
Bb|---------------------------------------------------------------------------|
Gb|---------------------------------------------------------------------------|
Db|---------------------------------------------------------------------------|
Ab|---------2-2-2-2-------------------------2-2-2-2---------------------------|
Eb|-0-0-0-0---------2-2-2-2-2-2-2-2-0-0-0-0---------2-2-2-2-2-2-2-2-----------|

eb|---------------------------------------------------------------------------|
Bb|---------------------------------------------------------------------------|
Gb|---------4-4-4-4-------------------------4-4-4-4---------------------------|
Db|-2-2-2-2-4-4-4-4-4-4-4-4-4-4-4-4-2-2-2-2-4-4-4-4-4-4-4-4-4-4-4-4-----------|
Ab|-2-2-2-2-2-2-2-2-4-4-4-4-4-4-4-4-2-2-2-2-2-2-2-2-4-4-4-4-4-4-4-4-----------|
Eb|-0-0-0-0---------2-2-2-2-2-2-2-2-0-0-0-0---------2-2-2-2-2-2-2-2-----------|

Bridge
eb|---------------------------------------------------------------------------|
Bb|---------------------------------------------------------------------------|
Gb|---------6666---------------------6666---------6666------------------------|
Db|-6-6-6-6-6666-6-6-6-6-6-6-6-6-6-6-6666-6-6-6-6-6666------------------------|
Ab|-6-6-6-6-4444-6-6-6-6-4-4-6-6-6-6-4444-6-6-6-6-4444------------------------|
Eb|-4-4-4-4------4-4-4-4-----4-4-4-4------4-4-4-4-----------------------------|

Verse (other strumming)
Bridge 2
eb|--3-3-3-3-2-2-2-2----|
Bb|--3-3-3-3-2-2-2-2----|
Gb|--4-4-4-4-3-3-3-3----|
Db|--5-5-5-5-4-4-4-4----|
Ab|--5-5-5-5-4-4-4-4----|
Eb|--3-3-3-3-2-2-2-2----|

Chorus 2x (different strummings, same chords)

Interlude
eb|-------------------------------------------------------------------|
Bb|-------------------------------------------------------------------|
Gb|-4-4-4-4-------------------------4-4-4-4---------------------------|
Db|-4-4-4-4-6-6-6-6-2-2-2-2-4-4-4-4-4-4-4-4-6-6-6-6-2-2-2-2-4-4-4-4---|
Ab|-2-2-2-2-6-6-6-6-2-2-2-2-4-4-4-4-2-2-2-2-6-6-6-6-2-2-2-2-4-4-4-4---|
Eb|---------4-4-4-4-0-0-0-0-2-2-2-2---------4-4-4-4-0-0-0-0-2-2-2-2---|

Pre-Chorus 2
eb|----------------------------------------|
Bb|----------------------------------------|
Gb|----4--------4--------4--------4--------|
Db|-2--4--4--2--4--4--2--4--4--2--4--4-----|
Ab|-2--2--4--2--2--4--2--2--4--2--2--4-----|
Eb|-0-----2--0-----2--0-----2--0-----2-----|

Chorus 3x

End on this
eb|-----|
Bb|-----|
Gb|-----|
Db|--2--|
Ab|--2--|
Eb|--0--|
comments
We did not receive enough feedback on this tab! Please rate:
print report bad tab
1 2 3 4 5
I want to post or [tab]
guest
You may want to rate the tab now too:
select rating
Please do not post tabs as comments. Select "correction" instead!