Oops, an error
Loading. Please wait.

Learn To Drown Bass Tab

version 1
version 1

Whole song

1,218 views 1 this week
1 commentread comment
1 2 3 4 5
x 3
add to favorites
launch autoscroll
font size
0
reset
guitar tuner
Autoscroll
slow
fast
+/-
esc
set tempo
stop
Help us to improve Ultimate-Guitar.com Take our survey!
×
Difficulty
intermediate
Intro:

E|-------------|
A|--10-8-6-5---|
D|-------------|
G|-------------|

E|--8-----------------|
A|----5-6-------8-----|
D|--------8-6-5---6---|
G|--------------------| x2

E|-----------------8-----8-3~---|
A|--6-------8--------5-6--------|
D|----8-6-5---5-6-5-------------|
G|------------------------------|

Verse:

E|--8-----------------|
A|----5-6-------8-----|
D|--------8-6-5---6---|
G|--------------------| x2

E|-----------------8-----8-3~---|
A|--6-------8--------5-6--------|
D|----8-6-5---5-6-5-------------|
G|------------------------------|

E|--8-----------------|
A|----5-6-------8-----|
D|--------8-6-5---6---|
G|--------------------| x2

E|-----------------8-----8-3~---|
A|--6-------8--------5-6--------|
D|----8-6-5---5-6-5-------------|
G|------------------------------|

Chorus:

E|--4~----3~---|
A|-----6~------|
D|-------------|
G|-------------|

E|--44444444------3333---|
A|-----------6666--------|
D|-----------------------|
G|-----------------------| 2x

E|--44444444------------|
A|-----------5555555----|
D|----------------------|
G|----------------------|

E|----------------------|
A|--55555555555555555---|
D|----------------------|
G|----------------------|

1x Intro
1x Verse
1x Chorus

Bridge: (not sure)

E|--666666666666--------------------------------------|
A|---------------55555555555-666666666666-555555555---|
D|----------------------------------------------------|
G|----------------------------------------------------| 2x

(guitar solo)-pause-

Chorus:

E|--4~----3~---|
A|-----6~------|
D|-------------|
G|-------------|

E|--44444444------3333---|
A|-----------6666--------|
D|-----------------------|
G|-----------------------| 4x

E|--44444444--------------|
A|-----------555555555----|
D|------------------------|
G|------------------------|

ending (no bass)


Chorus and Bridge isn`t perfect, but it should work! Have fun with Verse and Intro! It`s 
very nice bass riff!
Suggest correction
Give kudos to tab author, rate the tab!
1 2 3 4 5
comments
print report bad tab
1 comment total.
0 reply
JH. 10 Apr 11, 2011 02:21 PM

make it like this way:

D|-------------|
G|-------------|
A|--10-8-6-5---|
E|-------------|

G|--------------------| x2
D|--------8-6-5---6---|
A|----5-6-------8-----|
E|--8-----------------|

G|------------------------------|
D|----8-6-5---5-6-5-------------|
A|--6-------8--------5-6--------|
E|-----------------8-----8-3~---|

guest
You may want to rate the tab now too:
select rating
Wanna post a correction for this tab? Suggest correction