Oops, an error
Loading. Please wait.

Learn To Drown Bass Tab

version 2
version 2

Whole song

162 views 1 this week
no commentswrite comment
1 2 3 4 5
please rate
add to favorites
launch autoscroll
font size
0
reset
guitar tuner
Tab Pro tools
  • play this tab
  • loop segment
  • change instrument
  • show fretboard
  • metronome
×
Best way to learn
"Learn To Drown"
Autoscroll
slow
fast
+/-
esc
set tempo
stop
Contributor
Difficulty
Tuning
intermediate
D# G# C# F# A# D#
whattup?
this is me posting finally the tab for "Learn to drown" by Itchy Poopzkid
Have with it.
Intro
F#|-----------------------------------|
C#|---------0/6-4---------------------|
G#|---------------7-6-----------------|
D#|-----------------------------------|
Verse
F#|---------4--------------4---------4----------------------|
C#|----------7-6-4----------7-6-4-----7-6-4-6-7-4-----------|
G#|--4-6-7---------7-4-6-7-------7-7--------------4-6-7-4---|
D#|-------------------------------------------------------4-|
Chorus
F#|----------------------------------|
C#|----------------------------------|
G#|----------------------------------|
D#|-5-5-5-5-5-0-0-0-0-0-4-4-4-4-4---|End|--5-5-5-5-5-5-4-4-4-4-4|
comments
We did not receive enough feedback on this tab! Please rate:
print report bad tab
1 2 3 4 5
I want to post or [tab]
guest
You may want to rate the tab now too:
select rating
Please do not post tabs as comments. Select "correction" instead!