Oops, an error
Loading. Please wait.

Learn To Drown Bass Tab

version 3
version 3

Whole song

150 views 1 this week
no commentswrite comment
1 2 3 4 5
please rate
add to favorites
launch autoscroll
font size
0
reset
guitar tuner
Autoscroll
slow
fast
+/-
esc
set tempo
stop
Help us to improve Ultimate-Guitar.com Take our survey!
×
Author
Itchy Poopzkid
Learn To Drown
Standard Tuning

intro:
G|---------------|
A|--3/5-3--------|
D|--------6-5----|
E|---------------|

Verse:
G|--------3---------|--------3---------|
A|----------6-5-3---|----------6-5-3---|
D|--3-5-6---------6-|--3-5-6----------6|
E|------------------|------------------|

G|------------------|------------------|
A|----8-6-5---5-6-5-|----------5-------|
D|--6-------8-------|--3-5-6-3---------|
E|------------------|------------------|



G|--------3---------|--------3---------|
A|----------6-5-3---|----------6-5-3---|
D|--3-5-6---------6-|--3-5-6----------6|
E|------------------|------------------|

G|------------------|------------------|
A|----8-6-5---5-6-5-|----------5-3-----|
D|--6-------8-------|--3-5-6-3-----6-5-|
E|------------------|------------------|


Chorus:
G|-------------|
A|--------5~---|
D|-----6~------|
E|--4~---------|

G|-------------------------|
A|---------------5555------|
D|-----------6666----------|
E|--44444444---------------| 2x

G|-------------------------------|
A|-------------------------------|
D|-------------------------------|
E|--44444444-3333333333333333333-|


1x verse
1x chorus

Bridge:
G|-----------------------------|
A|--------55-88----------------|
D|--66-88-------------55-88----|
E|--------------66-88----------|

G|-----------------------------|
A|-----------------------------|
D|--3-33-56--------------------|
E|----------4-44-66------------|

1x chorus

I think that's correct!
Suggest correction new What's this?
You can suggest a correction to this tab. Community and Mods will review your correction and vote to approve or reject it.
comments
We did not receive enough feedback on this tab! Please rate:
print report bad tab
1 2 3 4 5
guest
You may want to rate the tab now too:
select rating
Please do not post tabs as comments. Select "correction" instead!