Oops, an error
Loading. Please wait.

Learn To Drown Bass Tab

version 4
version 4

Whole song

491 views 1 this week
no commentswrite comment
1 2 3 4 5
please rate
add to favorites
launch autoscroll
font size
0
reset
guitar tuner
Autoscroll
slow
fast
+/-
esc
set tempo
stop
Help us to improve Ultimate-Guitar.com Take our survey!
×
Author
Itchy Poopzkid - Learn to Drown

Hey Guys, this is my first tab, which i submit here on this platform. 
This song was written by one of my favourite bands, "Itchy Poopzkid". 
I think it's 100% correct, but if you think, that i made a mistake, 
send me a message. Now have fun with the song! :)

Intro
G|----------------|
D|--0/5-----------|
A|-------8--6--5--|
E|----------------|

Verse
G|------------------------|-------------------------|-----------------------|
D|----------8--6--5-------|----------8--6--5------5-|----8--6--5-----5--6--5|
A|----5--6-----------8--6-|----5--6-----------8-----|-6-----------8---------|
E|-8----------------------|-8-----------------------|-----------------------|

G|---------------| 
D|-------------5-| 
A|----5--6-------| 2x
E|-8--------8----|

G|------------------------|-------------------------|-----------------------|
D|----------8--6--5-------|----------8--6--5------5-|----8--6--5-----5--6--5|
A|----5--6-----------8--6-|----5--6-----------8-----|-6-----------8---------|
E|-8----------------------|-8-----------------------|-----------------------|

Pre-Chorus
G|--------------|----------------|
D|-6------------|-5--------3-----|
A|--------------|------------6-5-|
E|--------------|----------------|

Chorus
G|-----------------|-----------------|
D|-6-6-6-6-6-6-6-6-|---------5-5-5-5-|
A|-----------------|-6-6-6-6---------| 2x
E|-----------------|-----------------|

G|-----------------|-------------------------|--------------|
D|-6-6-6-6-6-6-6-6-|-5-5-5-5-555-555-555-555-|-53-----------|
A|-----------------|-------------------------|---6-565-3----|
E|-----------------|-------------------------|--------------|

Bridge:
G|-----------------|-----------------|-----------------|-----------------|
D|---------555-888-|-----------------|-----111---------|-----111---------|
A|-666-888---------|---------555-888-|-333-------------|-333-------------| 2x
E|-----------------|-666-888---------|---------444-666-|---------444-666-|

G|-----------------|-----------------|-----------------|-----------------|
D|-----------------|-----------------|-----111---------|-----111---------|
A|-666-666-666-666-|-----------------|-333-------------|-333-------------| 2x
E|-----------------|-666-666-666-666-|---------444-666-|---------444-666-|

Order:
Intro
Verse
Pre-Chorus
Chorus
Verse
Pre-Chorus
Chorus
Bridge
Pre-Chorus
Chorus (first part play 2 times)
Ending without Bass

Enjoy! :)
Suggest correction
What's this?
You can suggest a correction to this tab. Community and Mods will review your correction and vote to approve or reject it.
comments
We did not receive enough feedback on this tab! Please rate:
print report bad tab
1 2 3 4 5
guest
You may want to rate the tab now too:
select rating
Please do not post tabs as comments. Select "correction" instead!