Oops, an error
Loading. Please wait.

Lyrically Happy Bass Tab

214 views 1 this week
no commentswrite comment
1 2 3 4 5
2 more votes to show rating
add to favorites
launch autoscroll
font size
0
reset
guitar tuner
Autoscroll
slow
fast
+/-
esc
set tempo
stop
Help us to improve Ultimate-Guitar.com Take our survey!
×
Author
Difficulty
intermediate
Hey there guys
this is the right bass part of Itchy Poopzkid's Lyrically Happy from their 2005 Album 
"Heart to believe". One of their greatest records so far I guess. Those are really nice 
guys and this is a really catchy song, even after years of listening to it.
And remember: even if most of their songs are played in 1/2 step down tuning, this one's 
in standard tuning!
have fun!

Intro (0:35)
G|-------------------------------------------|
D|-----------------------------------------2-|
A|0-h2-1-0---0-h2-1-0---0-h2-1-0---0h2-3-4---|
E|---------2----------2----------2-----------|

Chorus (0:41)
G|---------------------------------------|
D|----4--4----------------4---4----------|
A|---------0-h2-2-2-4-4--------0-h2-3-4--|
E|--2--2----------------2---2----------0-|

Chorus End ("And I won't be coming home..")
G|------------------------------------|
D|----------------------------------2-|
A|-2-2-2-2-4-4-4-4-2-2-2-2-0-h2-3-4---|
E|------------------------------------|

Verse
G|----------4-2----------------------------------4-2--------------------------|
D|--4-2--------4-2--4-2-----------------4-2----------4-2--4-2-----------------|
A|-----4-3-2-----------4-3-2-2-2-2/4-4-----4-3-2--------------2h3-2h3-2h3-2h3-|
E|-2---------------2-------------------2-----------------2--------------------|

Bass Solo (2:03)
G|----------------|
D|--4-4---------2-|
A|-----0-h2-3-4---|
E|-2-2------------|

Order:
Intro
Chorus
Chorus End
- little guitar solo part whatever -
Verse
Intro
Chorus
Chorus End
Bass Solo
-just guitar and singing part-
Chorus
Chorus End 2x
Intro until the end.
Suggest correction
Give kudos to tab author, rate the tab!
1 2 3 4 5
comments
print report bad tab
guest
You may want to rate the tab now too:
select rating
Wanna post a correction for this tab? Suggest correction