Oops, an error
Loading. Please wait.

Mute Somebody Tab

501 views 1 this week
no commentswrite comment
1 2 3 4 5
please rate
add to favorites
launch autoscroll
font size
0
reset
how to read this tab
guitar tuner
Autoscroll
slow
fast
+/-
esc
set tempo
stop
Help us to improve Ultimate-Guitar.com Take our survey!
×
Author
Difficulty
Tuning
novice
D# G# C# F# A# D#
Album: „Lights Out London“
Tuning: Half Step Down (Eb, Ab, Db, Gb, Hb, eb)
Distortion

Intro

E---------------------------|
B---------------------------|
G---------------------------|   
D--------------0---0-2—025--|
A------0-2-0-2---2----------|
E--0-3----------------------|

E-------------------------|
B-------------------------|
G-------------------------|             
D--2—-5h7—-5h999--7-5-4---|  (2x)
A--2—-5h7—-5h999--7-5-4---|
E--0—-3h5—-3h777--5-3-2---|

E--------------------------------------------------------|
B--------------------------------------------------------|
G--------------------------------------------------------|              
D--2—5h7—-5h999h7h9--1010101010101010-12121212-13131313--|
A--2—5h7—-5h999h7h9--1010101010101010-12121212-13131313--|
E--0—3h5—-3h777h5h7---8-8-8-8-8-8-8-8—10101010-11111111--|


Verse
(Bass only)

G--------------------|
D—-------------------|
A------0--222-0------|
E--0-3---3------3-2--|…


PreChorus

E-------------------------------------------------|
B-------------------------------------------------|
G-------------------------------------------------|  
D--7-8-9-99999999999-7-8-9-9999-1313131313131313--|
A—-7-8-9-99999999999-7-8-9-9999-1313131313131313--|
E--5-6-7-77777777777-5-6—7-7777-1010101010101010--|


Chorus

E---------------------------------------------|
B---------------------------------------------|
G-----------4--------5---------------7—-------|  
D--5--------4-(16x)--5-(8x)--5-------7-(16x)--|   
A—-5-(16x)--2--------3-------5-(8x)--5--------|
E--3-------------------------3----------------|

E-----------------------------------------------------|
B-----------------------------------------------------|
G-----------4--------5---------------7—-------8-------|  
D--5--------4-(16x)--5-(8x)--5-------7-(13x)—-8-(3x)--|   
A—-5-(16x)--2--------3-------5-(8x)--5--------6-------|
E--3-------------------------3------------------------|


PostChorus

E-------------------------|
B-------------------------|
G-------------------------|             
D--2—-5h7—-5h999--7-5-4---|  (2x)
A--2—-5h7—-5h999--7-5-4---|
E--0—-3h5—-3h777--5-3-2---|


Verse 
2nd part

E--7--7--7--7--7--7-7777--|
B--8--8--8--8--8--8-8888--|
G--9--9--9--9--9--9-9999--|             
D--9—-9--9—-9—-9--9-9999--|  (3x)
A---—---------------------|
E---—---------------------|


Pre-Chorus


Chorus 


Solo
LeadGuitar

E--------------------------------------------------------------------|
B--------------------------------------------------------------------|
G-----------------------0---------------------0---2--------------0---|  
D-------------0---0-2—0----------0---0-2-0-2----2--------0-2-0-2---2-|
A-----0-2-0-2---2------------0-2---2-----------------0-3-------------|
E-0-3----------------------3-----------------------------------------|

E----------------------------------|
B-------0-------------------0---3--|
G-0-2-0----------0--0-2-0-2---2----|    
D------------0-2--2----------------|  (2x)
A----------3-----------------------|
E----------------------------------|

Solo
RhythmGuitar

E---------------------------------------------|
B---------------------------------------------|
G--9--------7--------6--------5-------4-------|
D--x-(16x)--x-(16x)--x—(16x)--x—(8x)--x—(8x)--|  (2x)  
A—-7--------5-----—--4--------3-------2-------|   
E—--------------------------------------------|

and then…

E--------------------------------------------------|
B--------------------------------------------------|
G------------4x--------5x----------------7x—-------|  
D—-5x--------4x-(16x)—-5x-(8x)—-5x-------7x-(16x)--|   
A—-5x-(16x)—-2x--------3x-------5x-(8x)—-5x--------|
E—-3x---------------------------3x-----------------|


Chorus 


Outro

E-------------------------|
B-------------------------|
G-------------------------|             
D--2—-5h7—-5h999--7-5-4---|  (2x)
A--2—-5h7—-5h999--7-5-4---|
E--0—-3h5—-3h777--5-3-2---|
Suggest correction
Give kudos to tab author, rate the tab!
1 2 3 4 5
comments
print report bad tab
guest
You may want to rate the tab now too:
select rating
Wanna post a correction for this tab? Suggest correction