Oops, an error
Loading. Please wait.

Out There bass

135 views 1 this week
no commentswrite comment
1 2 3 4 5
3 more votes to show rating
add to favorites
×
Save as Personal and add changes to this tab that will be seen only by you. Learn more ›
×
You can save this tab as Personal to edit and correct it or add notes. All changes will be seen only by you. Learn more »
launch autoscroll
font size
0
reset
guitar tuner
edit
Autoscroll
slow
fast
+/-
esc
set tempo
stop
Normally, the german punk rock band Itchy Poopzkid plays their songs in Half-Step-Down-Tuning.
But this amazing song taken from their album 'Six' is in Drop C# Tuning.
Have fun with it and don't forget to rate

Intro (no bass)

Verse (start at 0:28)
Gb|----------------|----------------|----------------|----------------|
Db|----------------|----------------|----------------|----------------|
Ab|5-5-------------|----------------|5-5-------------|----------------|
Db|------7-8-8---5-|7-7---3-5-3-2---|------7-8-8---5-|7-7---3-5-3-2---|
   E E r E E E r E  E E r E E E E r  E E r E E E r E  E E r E E E E r

Gb|----------------|----------------|----------------|----------------|
Db|----------------|----------------|----------------|----------------|
Ab|5-5-------------|----------------|----------------|----------------|
Db|------7-8-8---5-|7-7---3-5-3-2---|7~~3~~0~~--5--3-|7~~3~~0~~~0-2-0-|
   E E r E E E r E  E E r E E E E r  E. E. E. E E. E  E. E. Q   E E E

Pre-Chorus
Gb|----------------|----------------|----------------|----------------|
Db|----------------|----------------|----------------|----------------|
Ab|----------------|----------------|----------------|----------------|
Db|7~~~~~~~~~~~~~//|19~~~~~~~~~~~~\\|7~~~~~~~7~~~~~~/|19~~19~~19~~19\\|
   W                W                H       H        Q   Q   Q   Q

Chorus
Gb|----------------|----------------|----------------|----------------|
Db|----------------|----------------|----------------|----------------|
Ab|5-5-5-5-5-5-5-5-|5-5-5-5-5-5-5-5-|----------------|9-9-9-9-9-9-9-9-|
Db|----------------|----------------|9-9-9-9-9-9-9-9-|----------------|
   E E E E E E E E  E E E E E E E E  E E E E E E E E  E E E E E E E E

Gb|----------------|----------------|
Db|----------------|----------------|
Ab|----------------|----------------|
Db|5-5-5-5-5-5-5-5-|8-8-8-8-7-7-7-7-|
   E E E E E E E E  E E E E E E E E  

Gb|----------------|----------------|----------------|----------------|
Db|----------------|----------------|----------------|----------------|
Ab|5-5-5-5-5-5-5-5-|5-5-5-5-5-5-5-5-|----------------|9-9-9-9-9-9-9-9-|
Db|----------------|----------------|9-9-9-9-9-9-9-9-|----------------|
   E E E E E E E E  E E E E E E E E  E E E E E E E E  E E E E E E E E

Gb|----------------|----------------|
Db|----------------|----------------|
Ab|----------------|----------------|
Db|5-5-5-5-5-5-5-5-|8~~~8~~~7~~~//\\|
   E E E E E E E E  Q   Q   Q  

Pre-Verse
Gb|----------------|----------------|----------------|----------------|
Db|----------------|----------------|----------------|----------------|
Ab|5-5-------------|----------------|5-5-------------|----------------|
Db|------7-8-8---5-|7-7---3-5-3-2---|------7-8-8---5-|7-7---3-5-3-2---|
   E E r E E E r E  E E r E E E E r  E E r E E E r E  E E r E E E E r

Gb|----------------|----------------|----------------|----------------|
Db|----------------|----------------|----------------|----------------|
Ab|5-5-------------|----------------|----------------|----------------|
Db|------7-8-8---5-|7-7---3-5-3-2---|7~~3~~0~~--5--3-|7~~3~~0~~~------|
   E E r E E E r E  E E r E E E E r  E. E. E. E E. E  E. E. Q   Q.

Verse (8 bars of pause, then the same as before)
Pre-Chorus
Chorus

Bridge (same as Pre-Verse without last 2 bars)
Gb|----------------|----------------|----------------|----------------|
Db|----------------|----------------|----------------|----------------|
Ab|5-5-------------|----------------|5-5-------------|----------------|
Db|------7-8-8---5-|7-7---3-5-3-2---|------7-8-8---5-|7-7---3-5-3-2---|
   E E r E E E r E  E E r E E E E r  E E r E E E r E  E E r E E E E r

Gb|----------------|----------------|
Db|----------------|----------------|
Ab|5-5-------------|----------------|
Db|------7-8-8---5-|7-7---3-5-3-2---|
   E E r E E E r E  E E r E E E E r  

Breakdown
Gb|----------------|----------------|----------------|----------------|
Db|----------------|----------------|----------------|----------------|
Ab|----------------|----------------|----------------|----------------|
Db|0-0-3b~~0-0-3b~~|0-0-3b~~0-0-5b~~|0-0-3b~~0-0-3b~~|0-0-3b~~0-0-7b~~|
   E E Q   E E Q    E E Q   E E Q    E E Q   E E Q    E E Q   E E Q

Gb|----------------|----------------|----------------|----------------|
Db|----------------|----------------|----------------|----------------|
Ab|----------------|----------------|----------------|----------------|
Db|0-0-3b~~0-0-3b~~|0-0-3b~~0-0-5b~~|0-0-3b~~0-0-3b~~|0-0-3b~~9~~7~~5~|
   E E Q   E E Q    E E Q   E E Q    E E Q   E E Q    E E Q    --3--

Gb|----------------|----------------|----------------|----------------|
Db|----------------|----------------|----------------|----------------|
Ab|----------------|----------------|----------------|----------------|
Db|0-0-3b~~0-0-3b~~|0-0-3b~~0-0-5b~~|0-0-3b~~0-0-3b~~|0-0-3b~~0-0-7b~~|
   E E Q   E E Q    E E Q   E E Q    E E Q   E E Q    E E Q   E E Q

Gb|----------------|----------------|----------------|----------------|
Db|----------------|----------------|----------------|----------------|
Ab|----------------|----------------|----------------|----------------|
Db|0-0-3b~~0-0-3b~~|0-0-3b~~0-0-5b~~|7~~3~~0~~--5--3-|7~~3~~0~~~0-2-0-|
   E E Q   E E Q    E E Q   E E Q    E. E. E. E E. E  E. E. Q   E E E

Pre-Chorus
Chorus
Outro = Pre-Verse


W = Whole note
H = Half note
Q = Quarter note
E = Eighth note
S = Sixteenth note
. = makes the note a half longer
\ = Slide up
/ = Slide down
r = rest for a moment
h = Hammer-on
p = Pull-off
b = Bending
X = Mute note


            
            
Suggest correction
Creating personal tab
Creating personal tab
You can edit any tab online and save it as your Personal.

You can edit, replace or remove any tab part or add personal notes – all changes will be seen only by you.

Personal tabs can be accessed anytime from any device, even offline.
Learn more »
Give kudos to tab author, rate the tab!
1 2 3 4 5
comments
print report bad tab
guest
You may want to rate the tab now too:
select rating
Wanna post a correction for this tab? Suggest correction