Oops, an error
Loading. Please wait.

Pretty Me Tab

version 2
version 2

Whole song

421 views 1 this week
1 commentread comment
1 2 3 4 5
please rate
add to favorites
launch autoscroll
font size
0
reset
how to read this tab
guitar tuner
Autoscroll
slow
fast
+/-
esc
set tempo
stop
Help us to improve Ultimate-Guitar.com Take our survey!
×
Author
Difficulty
Tuning
novice
D# G# C# F# A# D#
Itchy Poopzkid - Pretty Me
Tuning: Half-Step-Down

Main Riff:
eb|----------------------------------------------------------------------|
Bb|----------------------------------------------------------------------|
Gb|----------------------------------------------------------------------|
Db|----------------------------------------------------------------------| (2x)
Ab|--------4--1--2---2--4--4---------------4--1--2---2--4--4--4--4-------|
Eb|--2---2--------------------0--1--2----2-------------------------------|

Interlude
eb|----------------------------------------------------------------------|
Bb|----------------------------------------------------------------------|
Gb|-----7--7--7--7--7--7----6--6--6--6--6--6-----------------------------|
Db|-----7--7--7--7--7--7----6--6--6--6--6--6-----------------------------|
Ab|-----5--5--5--5--5--5----4--4--4--4--4--4-----------------------------|
Eb|----------------------------------------------------------------------|

Main Riff (3x)

Pre-Chorus
eb|----------------------------------------------------------------------|
Bb|----------------------------------------------------------------------|
Gb|-----7--7--7--7--7--7----6--6--6--6--6--6-----------------------------|
Db|-----7--7--7--7--7--7----6--6--6--6--6--6-----------------------------|
Ab|-----5--5--5--5--5--5----4--4--4--4--4--4-----------------------------|
Eb|----------------------------------------------------------------------|

eb|----------------------------------------------------------------------|
Bb|----------------------------------------------------------------------|
Gb|-----7--7--7--7--7--7----9--9--9--9--9--9-----------------------------|
Db|-----7--7--7--7--7--7----9--9--9--9--9--9-----------------------------|
Ab|-----5--5--5--5--5--5----7--7--7--7--7--7-----------------------------|
Eb|----------------------------------------------------------------------|



Chorus: (4x)                                             |play at the 4th time
eb|------------------------------------------------------|-------------------------|
Bb|------------------------------------------------------|-------------------------|
Gb|-------------------------------9--9--9--9--9--9--9--9-|--7--7--7--7--9--9--9--9-|
Db|-----7--7--7--7--7--7--7--7----9--9--9--9--9--9--9--9-|--7--7--7--7--9--9--9--9-|
Ab|-----7--7--7--7--7--7--7--7----7--7--7--7--7--7--7--7-|--5--5--5--5--7--7--7--7-|
Eb|-----5--5--5--5--5--5--5--5---------------------------|-------------------------|


eb|------------------------------------------------------------------------|
Bb|------------------------------------------------------------------------|
Gb|-------------------------------7--7--7--7--7--7--7--7-------------------|
Db|-----4--4--4--4--4--4--4--4----7--7--7--7--7--7--7--7-------------------|
Ab|-----4--4--4--4--4--4--4--4----5--5--5--5--5--5--5--5-------------------|
Eb|-----2--2--2--2--2--2--2--2---------------------------------------------|

Main Riff (2x)
Interlude
Main Riff (2x)
Pre-Chorus

Chorus

Bridge: (first time palm-muted)
eb|------------------------------------------------------------------------|
Bb|------------------------------------------------------------------------|
Gb|--------------------------------------------------7--7--7--7--9--9--9--9|
Db|--7--7--7--7--8--8--8--8--9--9--9--9--4--4--4--4--7--7--7--7--9--9--9--9| (2x)
Ab|--7--7--7--7--8--8--8--8--9--9--9--9--4--4--4--4--5--5--5--5--7--7--7--7|
Eb|--5--5--5--5--6--6--6--6--7--7--7--7--2--2--2--2------------------------|

Chorus
Main Riff (the half)
Suggest correction new What's this?
You can suggest a correction to this tab. Community and Mods will review your correction and vote to approve or reject it.
comments
We did not receive enough feedback on this tab! Please rate:
print report bad tab
1 2 3 4 5
1 comment total.
0 reply
derk?ther95 153 wrote on August 27 2013, 10:46 am

Ich finde das hohe F# klingt im Chorus deutlich besser aber trotzdem top Arbeit ;)

guest
You may want to rate the tab now too:
select rating
Please do not post tabs as comments. Select "correction" instead!