Oops, an error
Loading. Please wait.

Reponsiblity Tab

79 views 1 this week
no commentswrite comment
1 2 3 4 5
please rate
add to favorites
launch autoscroll
font size
0
reset
how to read this tab
guitar tuner
Autoscroll
slow
fast
+/-
esc
set tempo
stop
Help us to improve Ultimate-Guitar.com Take our survey!
×
Author
Difficulty
Tuning
novice
D# G# C# F# A# D#
Itchy Poopzkid - Reponsiblity
Tuning: Half-Step-Down

Intro
eb|--------------------------------------------------------------------|
Bb|--------------------------------------------------------------------|
Gb|--------------------------------------------------------------------|
Db|-8-8-8-8-7-7-7-7-6-6-6-6-3-3-3-6-6-6-8-8-8-8-7-7-7-7-6-6-6-6-3------|
Ab|-8-8-8-8-8-8-8-8-6-6-6-6-3-3-3-6-6-6-8-8-8-8-8-8-8-8-6-6-6-6-3------|
Eb|-6-6-6-6-5-5-5-5-4-4-4-4-1-0-1-4-0-4-6-6-6-6-5-5-5-5-4-4-4-4-1------|

Verse
eb|------------------------------------------------|
Bb|------------------------------------------------|
Gb|-----------------6-6-6-6------------------------|
Db|-8-8-8-8-7-7-7-7-6-6-6-6-4-4-4-4-3-3-3-3--------| 2x
Ab|-8-8-8-8-8-8-8-8-4-4-4-4-4-4-4-4-3-3-3-3--------|
Eb|-6-6-6-6-5-5-5-5---------2-2-2-2-1-1-1-1--------|

Chorus
eb|--------------------------------------------------------------------|
Bb|--------------------------------------------------------------------|
Gb|---------3-3-3-3---------6-6-------------3-3-3-3--------------------|
Db|-4-4-4-4-3-3-3-3-4-4-4-4-6-6-6-6-4-4-4-4-3-3-3-3-4-4-4-4-3-3-6-6----|
Ab|-4-4-4-4-1-1-1-1-4-4-4-4-4-4-6-6-4-4-4-4-1-1-1-1-4-4-4-4-3-3-6-6----|
Eb|-2-2-2-2---------2-2-2-2-----4-4-2-2-2-2---------2-2-2-2-1-1-4-4----|

Intro
Verse
Chorus

Interlude
eb|-------------------------------|--------|------|
Bb|-------------------------------|--------|------|
Gb|-------------------------------|--------|------|
Db|-------------------------------|x4-then-|------|
Ab|-1111-3333-4444-6666-4444-3333-|--------|-1111-|
Eb|-------------------------------|--------|------|

Chorus

End on
eb|-----|
Bb|-----|
Gb|-----|
Db|--8--|
Ab|--8--|
Eb|--6--|
Suggest correction
Give kudos to tab author, rate the tab!
1 2 3 4 5
comments
print report bad tab
guest
You may want to rate the tab now too:
select rating
Please do not post tabs as comments. Select "correction" instead!