Oops, an error
Loading. Please wait.

Said Youd Be There Tab

version 2
version 2

Whole song

238 views 1 this week
no commentswrite comment
1 2 3 4 5
please rate
add to favorites
launch autoscroll
font size
0
reset
how to read this tab
guitar tuner
Autoscroll
slow
fast
+/-
esc
set tempo
stop
Help us to improve Ultimate-Guitar.com Take our survey!
×
Tabed by Flochris, check out my Youtube Profile ;)
Email: christian92.bf@orange.fr

#This document is the own interpretation of its author for this song#

Itchy Poopzkid - Said you'd be there TABS


E 1,5 steps down
All the rest 1/2 steps down


Intro:

|----------------------------------------------------------------|
|----------------------------------------------------------------|
|-------------7---------7-7-7-7-9-9-9-9-10-10-10-10--12-12-12-12-|
|0------------7---------7-7-7-7-9-9-9-9-10-10-10-10--12-12-12-12-|
|0------------5---------5-5-5-5-7-7-7-7--8--8--8--8--10-10-10-10-|
|0------------0--------------------------------------------------|

|-------------------------------------------|
|-------------------------------------------|
|-------------------------------------------|
|0--0-0-----0--0-0-----7-7-7-7-6-6-3-3------|
|0--0-0-----0--0-0-----7-7-7-7-6-6-3-3------|     x2
|0--0-0-----0--0-0-----7-7-7-7-6-6-3-3------|

|------------------------------------------|
|------------------------------------------|
|------------------------------------------|
|0--0-0-/12--0--0-0-/12--7-7-7-7-6-6-3-3---|
|0--0-0-/12--0--0-0-/12--7-7-7-7-6-6-3-3---|  x2
|0--0-0-/12--0--0-0-/12--7-7-7-7-6-6-3-3---|

Verse:

|-----------------------------------------------------------------------------|
|-----------------------------------------------------------------------------|
|----------------------------------------/5-5-5-5-5-5-5-5---------------------|
|0--0-0----0--0-0----0--0-0----0--0-0----/5-5-5-5-5-5-5-5-5-5-5-5-5-5-5-5-----|
|0--0-0----0--0-0----0--0-0----0--0-0----/3-3-3-3-3-3-3-3-5-5-5-5-5-5-5-5-----|    x2
|0--0-0----0--0-0----0--0-0----0--0-0---------------------5-5-5-5-5-5-5-5-----|

|--------|
|--------|
|--------|
|7-7-7-7-|
|7-7-7-7-|
|7-7-7-7-|

Chorus:

|--------------------------------|
|--------------------------------|
|7-7-7-7-5-5-5-5---------3-3-3-3-|
|7-7-7-7-5-5-5-5-5-5-5-5-3-3-3-3-|
|5-5-5-5-3-3-3-3-5-5-5-5-1-1-1-1-|
|0-0-0-0---------5-5-5-5---------|

|--------------------------------|
|--------------------------------|
|7-7-7-7-5-5-5-5---------3-3-----|
|7-7-7-7-5-5-5-5-5-5-5-5-3-3-3-2-|
|5-5-5-5-3-3-3-3-5-5-5-5-1-1-3-2-|
|0-0-0-0---------5-5-5-5-----3-2-|

|--------------------------------|
|--------------------------------|
|--7-7-7-5-5-5-5---------3-3-3-3-|
|0-7-7-7-5-5-5-5-5-5-5-5-3-3-3-3-|
|0-5-5-5-3-3-3-3-5-5-5-5-1-1-1-1-|
|0-0-0-0---------5-5-5-5---------|

|-------------------------------|
|-------------------------------|
|7-7--5-5-----------------------|
|7-7--5-5--5-5--3-3-------------|
|5-5--3-3--5-5--3-3-------------|
|0-0-------5-5--3-3-------------|

Bridge:

|----------------------------------|
|----------------------------------|
|3----5----------------------------|
|3----5----3----------3------------|
|1----3----3----------3------------|
|----------3----3-3-3-3----3-3-3-3-|
                pm pm  pm pm pm pm
Suggest correction
What's this?
You can suggest a correction to this tab. Community and Mods will review your correction and vote to approve or reject it.
comments
We did not receive enough feedback on this tab! Please rate:
print report bad tab
1 2 3 4 5
guest
You may want to rate the tab now too:
select rating
Please do not post tabs as comments. Select "correction" instead!