Oops, an error
Loading. Please wait.

She Said Tab

132 views 1 this week
no commentswrite comment
1 2 3 4 5
3 more votes to show rating
add to favorites
launch autoscroll
font size
0
reset
how to read this tab
guitar tuner
Autoscroll
slow
fast
+/-
esc
set tempo
stop
Help us to improve Ultimate-Guitar.com Take our survey!
×
Author
Difficulty
Tuning
novice
D# G# C# F# A# D#
Itchy Poopzkid - She Said
Tuning: Half-Step-Down

Every part has a headline, if the headline appears, you have to play this part ;)

Intro
eb|---------------------------------------------------------------------------|
Bb|---------------------------------------------------------------------------|
Gb|---------------------------------------------------------------------------|
Db|---------------------------------------------------------------------------|
Ab|---------------------------------------------------------------------------|
Eb|--5-5-4-3-3-3-4-5-5-5-4-3-3-3-4-5-5-5-4-3-3-3-4-5-5-5-4-3-3-3-4------------|

Intro (powerchords)
eb|---------------------------------------------------------------------------|
Bb|---------------------------------------------------------------------------|
Gb|---------------------------------------------------------------------------|
Db|--7-7-6-5-5-5-6-7-7-7-6-5-5-5-6-7-7-7-6-5-5-5-6-7-7-7-6-5-5-5-6------------|
Ab|--7-7-6-5-5-5-6-7-7-7-6-5-5-5-6-7-7-7-6-5-5-5-6-7-7-7-6-5-5-5-6------------|
Eb|--5-5-4-3-3-3-4-5-5-5-4-3-3-3-4-5-5-5-4-3-3-3-4-5-5-5-4-3-3-3-4------------|

Verse
eb|---------------------------------------------------------------------------|
Bb|---------------------------------------------------------------------------|
Gb|---------------------------------------------------------------------------|
Db|---------------------------------------------------------------------------|
Ab|----------------------------------5-5-5-5-5-5-5-5-5-5-5-5-5-5-5-5----------|
Eb|--5-5-5-5-5-5-5-5-5-5-5-5-5-5-5-5------------------------------------------|

eb|---------------------------------------------------------------------------|
Bb|---------------------------------------------------------------------------|
Gb|---------------------------------------------------------------------------|
Db|---------------------------------------------------------------------------|
Ab|---------------------------------------------------------------------------|
Eb|--5-5-5-5-5-5-5-5-5-5-5-5-5-5-5-5-1-1-1-1-1-1-1-1-3-3-3-3-3-3-3-3----------|

eb|---------------------------------------------------------------------------|
Bb|---------------------------------------------------------------------------|
Gb|---------------------------------------------------------------------------|
Db|---------------------------------------------------------------------------|
Ab|---------------------------------------------------------------------------|
Eb|--5-5-5-5-5-5-5-5-5-5-5-5-5-5-5-5-1-1-1-1-1-1-1-1-3-3-3-3-3-3-3------------|

Verse


Pre-Chorus
eb|---------------------------------------------------------------------------|
Bb|---------------------------------------------------------------------------|
Gb|--7-7-6-5-5-5-6-7-7-7-6-5-5-5-6--------------------------------------------|
Db|--7-7-6-5-5-5-6-7-7-7-6-5-5-5-6-7-7-6-5-5-5-6-7-7-7-6-5-5-5-6--------------|
Ab|--5-5-4-3-3-3-4-5-5-5-4-3-3-3-4-7-7-6-5-5-5-6-7-7-7-6-5-5-5-6--------------|
Eb|--------------------------------5-5-4-3-3-3-4-5-5-5-4-3-3-3-4--------------|

eb|---------------------------------------------------------------------------|
Bb|---------------------------------------------------------------------------|
Gb|--7-7-6-5-5-5-6-7-7-7-6-5-5-5-6--------------------------------------------|
Db|--7-7-6-5-5-5-6-7-7-7-6-5-5-5-6-2--2--2--2--5--5--5--5---------------------|
Ab|--5-5-4-3-3-3-4-5-5-5-4-3-3-3-4-2--2--2--2--5--5--5--5---------------------|
Eb|--------------------------------0--0--0--0--3--3--3--3---------------------|


Chorus
eb|--------------------------------------------------------------------------------------|
Bb|--------------------------------------------------------------------------------------|
Gb|--------5--5--------7--7--------5--5--------7--7--------5--5--------7--7--------7--7--|
Db|--7--7--5--5--5--5--7--7--7--7--5--5--5--5--7--7--7--7--5--5--5--5--7--7--5--5--7--7--|
Ab|--7--7--3--3--5--5--5--5--7--7--3--3--5--5--5--5--7--7--3--3--5--5--5--5--5--5--5--5--|
Eb|--5--5--------3--3--------5--5--------3--3--------5--5--------3--3--------3--3--------|

Intro (powerchords)
Verse
Pre-Chorus
Chorus
Intro
Pre-Chorus (just 2nd part)
Chorus
Chorus 
Intro (powerchords)
Suggest correction
Give kudos to tab author, rate the tab!
1 2 3 4 5
comments
print report bad tab
guest
You may want to rate the tab now too:
select rating
Wanna post a correction for this tab? Suggest correction