Oops, an error
Loading. Please wait.

Silence Is Killing Me bass

version 1
version 1

Whole song

Interactive

64 views 1 this week
1 commentread comment
1 2 3 4 5
2 more votes to show rating
add to favorites
×
Save as Personal and add changes to this tab that will be seen only by you. Learn more ›
×
You can save this tab as Personal to edit and correct it or add notes. All changes will be seen only by you. Learn more »
launch autoscroll
font size
0
reset
guitar tuner
edit
Autoscroll
slow
fast
+/-
esc
set tempo
stop
Author
-----------------------------------------------------------------------------------
                  SILENCE IS KILLING ME - Itchy Poopzkid
-----------------------------------------------------------------------------------


Tuning: Standard

Intro (00:00)
no bass

Verse 1 (00:08)
no bass

Pre-Chorus (0:19)
G|--------------------------------------------------------------------------------|
D|--------------------------------------------------------------------------------|
A|-------------------------------------------7--------------9-----9-----9-----9---|
E|-14\2--2--2--2--2--2--2-2-2-2--5--5--5--5-----2--5--7--7-----7-----7-----7------|

G|---------------------------------------------------------------------------|
D|---------------------------------------------------------------------------|
A|-4--6--7--8--9--10--11--12-------------------------------------------------|
E|---------------------------------------------------------------------------|

Chorus (0:32)
G|---------------------------------------------------------------------------|
D|---------------------------------------------------------------------------|
A|---------------------------------------------------------------------------|
E|-7--7--7--7--7--7--7-7-7-7--2--2--2--2--2--2--2-2-2-2----------------------|

G|---------------------------------------------------------------------------|
D|---------------------------------------------------------------------------|
A|---------------------------------------------------------------------------|
E|-5--5--5-5-5-5--7--7--7-7-7-7--2--2--2-2-2-2--2--4--5--6-------------------|

G|---------------------------------------------------------------------------|
D|---------------------------------------------------------------------------|
A|---------------------------------------------------------------------------|
E|-7--7--7--7--7--7--7-7-7-7--2--2--2--2--2--2--2-2-2-2----------------------|

G|---------------------------------------------------------------------------|
D|---------------------------------------------------------------------------|
A|---------------------------------------------------------------------------|
E|-5--5--5-5-5-5--7--7--7-7-7-7----------------------------------------------|

Intro (0:53)
no bass

Verse 2 (0:58) (Studio Version)
no bass

Verse 2 (0:58) (Live Version)
G|----------------------------|
D|---------4------------------|
A|-2h4--------2h4--7-7-6-4----| 4x
E|------2---------------------|

Pre-Chorus (1:10)
G|--------------------------------------------------------------------------------|
D|--------------------------------------------------------------------------------|
A|-------------------------------------------7--------------9-----9-----9-----9---|
E|-14/2--2--2--2--2--2--2-2-2-2--5--5--5--5-----2--5--7--7-----7-----7-----7------|

G|---------------------------------------------------------------------------|
D|---------------------------------------------------------------------------|
A|-4--6--7--8--9--10--11--12-------------------------------------------------|
E|---------------------------------------------------------------------------|

Chorus (1:22)
G|---------------------------------------------------------------------------|
D|---------------------------------------------------------------------------|
A|---------------------------------------------------------------------------|
E|-7--7--7--7--7--7--7-7-7-7--2--2--2--2--2--2--2-2-2-2----------------------|

G|---------------------------------------------------------------------------|
D|---------------------------------------------------------------------------|
A|---------------------------------------------------------------------------|
E|-5--5--5-5-5-5--7--7--7-7-7-7--2--2--2-2-2-2--2--4--5--6-------------------|

G|---------------------------------------------------------------------------|
D|---------------------------------------------------------------------------|
A|---------------------------------------------------------------------------|
E|-7--7--7--7--7--7--7-7-7-7--2--2--2--2--2--2--2-2-2-2----------------------|

G|---------------------------------------------------------------------------|
D|---------------------------------------------------------------------------|
A|---------------------------------------------------------------------------|
E|-5--5--5-5-5-5--7--7--7-7-7-7----------------------------------------------|

Solo (1:43)
G|----------------------------|
D|---------4------------------|
A|-2h4--------2h4--7-7-6-4----| 4x
E|------2---------------------|

Pre-Chorus (1:54)
G|--------------------------------------------------------------------------------|
D|--------------------------------------------------------------------------------|
A|-------------------------------------------7--------------9-----9-----9-----9---|
E|-14/2--2--2--2--2--2--2-2-2-2--5--5--5--5-----2--5--7--7-----7-----7-----7------|

G|---------------------------------------------------------------------------|
D|---------------------------------------------------------------------------|
A|-4--6--7--8--9--10--11--12-------------------------------------------------|
E|---------------------------------------------------------------------------|

Chorus (2:06)
G|---------------------------------------------------------------------------|
D|---------------------------------------------------------------------------|
A|---------------------------------------------------------------------------|
E|-7--7--7--7--7--7--7-7-7-7--2--2--2--2--2--2--2-2-2-2----------------------|

G|---------------------------------------------------------------------------|
D|---------------------------------------------------------------------------|
A|---------------------------------------------------------------------------|
E|-5--5--5-5-5-5--7--7--7-7-7-7--2--2--2-2-2-2--2--4--5--6-------------------|

G|---------------------------------------------------------------------------|
D|---------------------------------------------------------------------------|
A|---------------------------------------------------------------------------|
E|-7--7--7--7--7--7--7-7-7-7--2--2--2--2--2--2--2-2-2-2----------------------|

G|---------------------------------------------------------------------------|
D|---------------------------------------------------------------------------|
A|---------------------------------------------------------------------------|
E|-5--5--5-5-5-5--7--7--7-7-7-7----------------------------------------------|

Outro (2:27)
G|----------------------------|
D|---------4------------------|
A|-2h4--------2h4--7-7-6-4----| 4x
E|------2---------------------|



| \  slide down
| h  hammer-on
===============================================================================

            
            
Suggest correction
Creating personal tab
Creating personal tab
You can edit any tab online and save it as your Personal.

You can edit, replace or remove any tab part or add personal notes – all changes will be seen only by you.

Personal tabs can be accessed anytime from any device, even offline.
Learn more »
Give kudos to tab author, rate the tab!
1 2 3 4 5
comments
print report bad tab
1 comment total.
0 reply
teschi 10 Sep 15, 2017 03:09 PM

love them, easy to learn the song with these tabs

guest
You may want to rate the tab now too:
select rating
Wanna post a correction for this tab? Suggest correction