Oops, an error
Loading. Please wait.

Silence Is Killing Me Tab

version 1
version 1

Whole song

Interactive

2,172 views 1 this week
no commentswrite comment
1 2 3 4 5
please rate
add to favorites
launch autoscroll
font size
0
reset
how to read this tab
guitar tuner
Autoscroll
slow
fast
+/-
esc
set tempo
stop
Help us to improve Ultimate-Guitar.com Take our survey!
×
Author
Difficulty
novice
This is my frist tab so im sorry if i messed up. I would give you my E-Mail in case i 
a mistake but i never read my e-mail but if i find one i will fix it.


                      Itchy Poopzkid
                   silence is killing me
Tuning: Normal

    Intro - X2 Dont do the palm muted part the second time
e|--------------------------------------------------------------------|
B|--------------------------------------------------------------------|
G|--------------------------------------------------------------------|
D|--------------4---7-8-----------------------------------------------|
A|-6-6-6--4h6-----------7h9-8-----------------------------------------|
E|-4-4-4------6---------------9---------------------------------------|

  pm....


  Verse x4
e|--------------------------------------------------------------------|
B|--------------------------------------------------------------------|
G|--------------------------------------------------------------------|
D|-7-7-8-8-8\10-10-10-9-----------------------------------------------|
A|-5-5-6-6-6\8---8--8-9-----------------------------------------------|
E|--------------------------------------------------------------------|


 Pre-Chorus x4
e|--------------------------------------------------------------------|
B|--------------------------------------------------------------------|
G|--------------------------------------------------------------------|
D|--------------------------------------------------------------------|
A|3-3-4-4\6-6-6-7-----------------------------------------------------|
E|1-1-2-2\4-4-4-5-----------------------------------------------------|


   Chorus x2
e|--------------------------------------------------------------------|
B|--------------------------------------------------------------------|
G|-5------6---------------8-------------------------------------------|
D|-5(x10)-4-(x10)-4-(x10)-6-(x10)-------------------------------------|
A|-3------4-------4-------6-------------------------------------------|
E|----------------6---------------------------------------------------|


 Verse 2  x4
e|--------------------------------------------------------------------|
B|--------------------------------------------------------------------|
G|--------------------------------------------------------------------|
D----------4---7-8----------------------------------------------------|
A|---4h6-----------7h9-8----------------------------------------------|
E|-------6---------------9--------------------------------------------|


Pre-Chorus x4
e|--------------------------------------------------------------------|
B|--------------------------------------------------------------------|
G|--------------------------------------------------------------------|
D|--------------------------------------------------------------------|
A|3-3-4-4\6-6-6-7-----------------------------------------------------|
E|1-1-2-2\4-4-4-5-----------------------------------------------------|


   Chorus x2
e|--------------------------------------------------------------------|
B|--------------------------------------------------------------------|
G|-5------6---------------8-------------------------------------------|
D|-5(x10)-4-(x10)-4-(x10)-6-(x10)-------------------------------------|
A|-3------4-------4-------6-------------------------------------------|
E|----------------6---------------------------------------------------|


  Interlude x1
e|--------------------------------------------------------------------|
B|--------------------------------------------------------------------|
G|--------------------------------------------------------------------|
D|-6-6-7-7-8p6----------------6-6-7-7--8p6----------------------------|
A|-------------8-7-------------------------8-7-------------10---------|
E|-----------------6-6-7-7-9-------------------6-6-7-7-9-9------------|

Pre-Chorus x4
e|--------------------------------------------------------------------|
B|--------------------------------------------------------------------|
G|--------------------------------------------------------------------|
D|--------------------------------------------------------------------|
A|3-3-4-4\6-6-6-7-----------------------------------------------------|
E|1-1-2-2\4-4-4-5-----------------------------------------------------|


  Chorus x2
e|--------------------------------------------------------------------|
B|--------------------------------------------------------------------|
G|-5------6---------------8-------------------------------------------|
D|-5(x10)-4-(x10)-4-(x10)-6-(x10)-------------------------------------|
A|-3------4-------4-------6-------------------------------------------|
E|----------------6---------------------------------------------------|

  Outro x4
e|--------------------------------------------------------------------|
B|--------------------------------------------------------------------|
G|--------------------------------------------------------------------|
D----------4---7-8----------------------------------------------------|
A|---4h6-----------7h9-8----------------------------------------------|
E|-------6---------------9--------------------------------------------|

| /  slide up
| \  slide down
| h  hammer-on
| p  pull-off
| ~  vibrato
| +  harmonic
| x  Mute note
Suggest correction
Give kudos to tab author, rate the tab!
1 2 3 4 5
comments
print report bad tab
guest
You may want to rate the tab now too:
select rating
Please do not post tabs as comments. Select "correction" instead!