Oops, an error
Loading. Please wait.

Silence Is Killing Me Tab

version 3
version 3

Whole song

Interactive

180 views 1 this week
no commentswrite comment
1 2 3 4 5
3 more votes to show rating
add to favorites
launch autoscroll
font size
0
reset
how to read this tab
guitar tuner
Autoscroll
slow
fast
+/-
esc
set tempo
stop
Help us to improve Ultimate-Guitar.com Take our survey!
×
Author
Difficulty
Tuning
novice
D# G# C# F# A# D#
Itchy Poopzkid - Silence Is Killing Me
Tuning: Half-Step-Down

The original - which is in half-step-down - isn't tabbed yet.

Intro
eb|------|--------------------|
Bb|------|--------------------|
Gb|------|--------------------|
Db|------|---------5-----3320-| (6x)
Ab|-(xxx)|--3h5------3h5------|
Eb|-(xxx)|-------3------------|
    

Pre-Chorus (+ Intro)
eb|---------------------------------------------------------------------------|
Bb|---------------------------------------------------------------------------|
Gb|-----------33333333-55555555-77777777--------------------------------------|
Db|--55555555-33333333-55555555-77777777--------------------------------------|
Ab|--55555555-11111111-33333333-55555555--------------------------------------|
Eb|--33333333-----------------------------------------------------------------|


Chorus
eb|---------------------------------------------------------------------------|
Bb|---------------------------------------------------------------------------|
Gb|--55555555----------333333333-55555555-(--------234)-----------------------|
Db|--55555555-55555555-333333333-55555555-(55555555234)-----------------------| (2x)
Ab|--33333333-55555555-111111111-33333333-(55555555012)-----------------------|
Eb|-----------33333333--------------------(33333333---)-----------------------|
   (part in the brackets only at the first time)
    
Verse 
eb|---------------------|
Bb|---------------------|
Gb|---------------------|
Db|----------5-----3320-| (figure it out how to play)
Ab|---3h5------3h5------|
Eb|--------3------------|

Pre Chorus (+Intro)
Chorus 
   
 
Solo 
eb|---------------------------------------------------------------------------|
Bb|---------------------------------------------------------------------------|
Gb|--12-10------------------12-12-10-------------12-10------------------------|
Db|--------12-10-9-10-12-------------12-9-10-9~--------12-10-9-10-12----------|
Ab|----------------------10------------------------------------------10-------|
Eb|---------------------------------------------------------------------------|

eb|---------------------------------------------------------------------------|
Bb|---------------------------------------------------------------------------|
Gb|-------------------------10----11-12---------------------------------------|
Db|--9----10----11----12------------------------------------------------------|
Ab|----10----10----10----10----10---------------------------------------------|
Eb|---------------------------------------------------------------------------|
 
Pre-Chorus (+Intro)
Chorus
  
Outro
eb|---------------------|
Bb|---------------------|
Gb|---------------------|
Db|----------5-----3320-| (4x)
Ab|---3h5------3h5------|
Eb|--------3------------|
Suggest correction
Give kudos to tab author, rate the tab!
1 2 3 4 5
comments
print report bad tab
guest
You may want to rate the tab now too:
select rating
Wanna post a correction for this tab? Suggest correction