Oops, an error
Loading. Please wait.

Stuck In A Daze Bass Tab

version 1
version 1

Whole song

Interactive

138 views 1 this week
no commentswrite comment
1 2 3 4 5
please rate
add to favorites
launch autoscroll
font size
0
reset
guitar tuner
Tab Pro tools
  • play this tab
  • loop segment
  • change instrument
  • show fretboard
  • metronome
×
Best way to learn
"Stuck In A Daze"
Autoscroll
slow
fast
+/-
esc
set tempo
stop
Contributor
Difficulty
Tuning
novice
D# G# C# F# A# D#
Song: Stuck In A Daze / Itchy Poopzkid
Tuning: Half-Step Down (Eb-Ab-Db-Gb)

Intro (0:20)
Gb|----------------|----------------|
Db|----------------|----------------|
Ab|----------------|----------------|
Eb|5555555555555555|5555555555555555|


Verse 1
Gb|----------------|----------------|----------------|----------------|
Db|----------------|----------------|----------------|----------------|
Ab|----------------|333-3-3-3-3-3-3-|----------------|----------------|
Eb|555-5-5-5-5-5-5-|----------------|333-3-3-3-3-3-3-|111-1-1-000-0-0-|

Gb|----------------|----------------|----------------|----------------|
Db|----------------|----------------|----------------|----------------|
Ab|----------------|3333333333333333|----------------|----------------|
Eb|5555555555555555|----------------|3333333333333333|1111111100000000|


Chorus
Gb|----------------|----------------|----------------|----------------|
Db|----------------|----------------|----------------|----------------|
Ab|5-5-5-5-5-5-5-5-|----------------|3-3-3-3-3-3-3-3-|----------------|
Eb|----------------|1-1-1-1-1-1-1-1-|----------------|3-3-3-3-4-4-4-4-|

Gb|----------------|----------------|----------------|----------------|
Db|----------------|----------------|----------------|----------------|
Ab|5-5-5-5-5-5-5-5-|8-8-8-8-8-8-8-8-|3-3-3-3-3-3-3-3-|----------------|
Eb|----------------|----------------|----------------|3-3-3-3-4-4-4-4-|

Gb|----------------|
Db|----------------|
Ab|----------------|
Eb|5\--------------| 


Verse 2
Gb|----------------|----------------|----------------|----------------|
Db|----------------|----------------|----------------|----------------|
Ab|----------------|333-3-3---3-3-3-|----------------|----------------| x2
Eb|555-5-5---5-5-5-|----------------|333-3-3---3-3-3-|111-1-1-000-0-0-| 


Chorus 2
Gb|----------------|----------------|----------------|----------------|
Db|----------------|----------------|----------------|----------------|
Ab|5~--------------|----------------|3-3-3-3-3-3-3-3-|----------------|
Eb|----------------|1~--------------|----------------|3-3-3-3-4-4-4-4-|

Gb|----------------|----------------|----------------|----------------|
Db|----------------|----------------|----------------|----------------|
Ab|5-5-5-5-5-5-5-5-|8-8-8-8-8-8-8-8-|3-3-3-3-3-3-3-3-|----------------|
Eb|----------------|----------------|----------------|3-3-3-3-4-4-4-4-|


Bridge
Gb|----------------|----------------|----------------|----------------|
Db|----------------|----------------|----------------|----------------|
Ab|----------------|----------------|----------------|33333333--------|
Eb|1111111111111111|555-333-555-333-|1111111111111111|--------33333333|

Gb|----------------|----------------|----------------|----------------|
Db|----------------|----------------|----------------|----------------|
Ab|----------------|----------------|----------------|----------------|
Eb|1111111111111111|555-333-555-333-|1111111111111111|5~--------------|


Chorus 3
Gb|----------------|----------------|----------------|----------------|
Db|----------------|----------------|----------------|----------------|
Ab|5-5-5-5-5-5-5-5-|----------------|3-3-3-3-3-3-3-3-|----------------|
Eb|----------------|1-1-1-1-1-1-1-1-|----------------|3-3-3-3-4-4-4-4-|  
                                                                        x2 
Gb|----------------|----------------|----------------|----------------|
Db|----------------|----------------|----------------|----------------|
Ab|5-5-5-5-5-5-5-5-|8-8-8-8-8-8-8-8-|3-3-3-3-3-3-3-3-|----------------|
Eb|----------------|----------------|----------------|3-3-3-3-4-4-4-4-|

Outro
Gb|----------------|----------------|----------------|----------------|
Db|----------------|----------------|----------------|----------------|
Ab|----------------|----------------|----------------|----------------|
Eb|5555555555555555|5555555555555555|5555555555555555|555555555-55-555|
comments
We did not receive enough feedback on this tab! Please rate:
print report bad tab
1 2 3 4 5
I want to post or [tab]
guest
You may want to rate the tab now too:
select rating
Please do not post tabs as comments. Select "correction" instead!