Oops, an error
Loading. Please wait.

Stuck In A Daze Tab

version 1
version 1

Whole song

Interactive

655 views 1 this week
no commentswrite comment
1 2 3 4 5
please rate
add to favorites
launch autoscroll
font size
0
reset
how to read this tab
guitar tuner
Autoscroll
slow
fast
+/-
esc
set tempo
stop
Help us to improve Ultimate-Guitar.com Take our survey!
×
-------------------------------------------------------------------------------
                Stuck in A Daze - Itchy Poopzkid
-------------------------------------------------------------------------------

Das is die Textversion von meinem GuitarPro Tab:
http://www.ultimate-guitar.com/tabs/i/itchy_poopzkid/stuck_in_a_daze_guitar_pro.htm

Tuning ist E A D G B E bei Gitarre 1 und Eb Ab Db Gb Bb Eb (halbton tiefer) bei Gitarre2

Intro
       S  S  S  S  S  S  S  S  S  S  S  S  S  S  E   
E||--------------------------------------------------||
B||--------------------------------------------------||
G||*-----------------------11-----------------------*||
D||*--------13-------13-------------------14----13--*||
A||---11-11----11-11----11----11-11-14-11----11------||
E||--------------------------------------------------||


Intro2
  S S S S S S S S S S  S S S  S S  S  
-------------------------------------|
-------------------------------------|
------------9----------------11------|
------9---------9-----11----------11-|
--7-7---7-7---7---9-9----9-9----9----|
-------------------------------------|


Riff1
    Mit Phaser oder so etwas ähnlichem^^                                 
    S         S S S S S S S S S S S S S E     
|-------------------------------------------||
|-------------------------------------------||
|*-----------------------------------------*||
|*------------------------4----------------*||
|---------------6-----6-------------7---6---||
|---4---------4---4-4---4---4-4-7-4---4-----||

Verse1
    PM-------------------------------------------|    
    S  S  S  S  S  S  S  S  S  S  S  S  S  S  E   
-------------------------------------------------|
-------------------------------------------------|
*-----------------------11-----------------------|
*--------13-------13-------------------14----13--|
---11-11----11-11----11----11-11-14-11----11-----|
-------------------------------------------------|


   PM-------------------------------------------|   
   S  S  S  S  S  S  S  S  S  S  S  S  S  S  E   
------------------------------------------------|
------------------------------------------------|
-----------------------11-----------------------|
--------13-------13-------------13----14----13--|
--14-14----14-14----14----14-14----14----14-----|
------------------------------------------------|



   PM-------------------------------------------|    
   S  S  S  S  S  S  S  S  S  S  S  S  S  S  E   
------------------------------------------------|
------------------------------------------------|
-----------------------11-----------------------|
--------13-------13-------------13----14----13--|
------------------------------------------------|
--14-14----14-14----14----14-14----14----14-----|



   PM----------------------------------------------|      
   S  S  S  S  S  S  S  S  S  S  S  S  S  S  S  S    
---------------------------------------------------||
---------------------------------------------------||
--------------------------------------------------*||
--------14-------------14-------13-------------13-*||
-----------------14----------------------13--------||
--12-12----12-12----12----11-11----11-11----11-----||


Refrain
   E  E  E  E  E  E  E  E     E  E  E  E  E  E  E  E   
---4--4--4--4--4--4--4--4--|--0--0--0--0--0--0--0--0--|
---5--5--5--5--5--5--5--5--|--0--0--0--0--0--0--0--0--|
*--6--6--6--6--6--6--6--6--|--1--1--1--1--1--1--1--1--|
*--6--6--6--6--6--6--6--6--|--2--2--2--2--2--2--2--2--|
---4--4--4--4--4--4--4--4--|--2--2--2--2--2--2--2--2--|
---------------------------|--0--0--0--0--0--0--0--0--|


  E  E  E  E  E  E  E  E     E  E  E  E  E  E  E  E     
--2--2--2--2--2--2--2--2--|--2--2--2--2--3--3--3--3---||
--4--4--4--4--4--4--4--4--|--2--2--2--2--3--3--3--3---||
--4--4--4--4--4--4--4--4--|--3--3--3--3--4--4--4--4--*||
--4--4--4--4--4--4--4--4--|--4--4--4--4--5--5--5--5--*||
--2--2--2--2--2--2--2--2--|--4--4--4--4--5--5--5--5---||
--------------------------|--2--2--2--2--3--3--3--3---||



Verse2 Gitarre 2 (Halbton tiefer gestimmt)
   S S E  E  Q    E  E  E   
Eb|--x-x-5--5--5----5--5--5--|
Bb|--x-x-5--5--5----5--5--5--|
Gb|--x-x-5--5--5----5--5--5--|
Db|--x-x-7--7--7----7--7--7--|
Ab|--x-x-7--7--7----7--7--7--|
Eb|--x-x-5--5--5----5--5--5--|


  S S E  E  Q    E  E  E     S S E  E  Q    E  E  E   
--x-x-3--3--3----3--3--3--|--x-x-3--3--3----3--3--3--|
--x-x-5--5--5----5--5--5--|--x-x-3--3--3----3--3--3--|
--x-x-5--5--5----5--5--5--|--x-x-4--4--4----4--4--4--|
--x-x-5--5--5----5--5--5--|--x-x-5--5--5----5--5--5--|
--x-x-3--3--3----3--3--3--|--x-x-5--5--5----5--5--5--|
--------------------------|--x-x-3--3--3----3--3--3--|


  S S E  E  E   E  E  E  E     
--x-x-1--1--1s--0--0--0--0--||
--x-x-1--1--1s--0--0--0--0--||
--x-x-2--2--2s--1--1--1--1-*||
--x-x-3--3--3s--2--2--2--2-*||
--x-x-3--3--3s--2--2--2--2--||
--x-x-1--1--1s--0--0--0--0--||



Verse 2 Gitarre 1

Spielt erst 4 Takte nichts und dann das:

   S  S  S  S  S  S  S  S  S  S  S  S  S  S  S  S  
--------------------------------------------------|
--------------------------------------------------|
--------13-------13-------13-------13-------13----|
--13-13----13-13----13-13----13-13----13-13----13-|
--------------------------------------------------|
--------------------------------------------------|


   S  S  S  S  S  S  S  S  S  S  S  S  S  S  S  S  
--------------------------------------------------|
--------------------------------------------------|
--------11-------11-------11-------11-------11----|
--13-13----13-13----13-13----13-13----13-13----13-|
--------------------------------------------------|
--------------------------------------------------|


   S  S  S  S  S  S  S  S  S  S  S  S  S  S  S  S  
--------------------------------------------------|
--------------------------------------------------|
--------------------------------------------------|
--------16-------16-------16-------16-------16----|
--16-16----16-16----16-16----16-16----16-16----16-|
--------------------------------------------------|


   S  S  S  S  S  S  S  S  S  S  S  S  S  S  S  S     
--------------------------------------------------|
--------------------------------------------------|
--------------------------------------------------|
--------14-------14----14-------13-------13----13-|
--14-14----14-14----14----13-13----13-13----13----|
--------------------------------------------------|


Bridge1
    E  E  E  E  E  E  E  E     S S S S S S S S S S S S S S S S  
|---------------------------|----------------------------------|
|---------------------------|----------------------------------|
|---1--1--1--1--1--1--1--1--|------------4-4-4---9-9-9---8-8-8-|
|---2--2--2--2--2--2--2--2--|----6-6-6---4-4-4---9-9-9---8-8-8-|
|---2--2--2--2--2--2--2--2--|----6-6-6---2-2-2---7-7-7---6-6-6-|
|---0--0--0--0--0--0--0--0--|----4-4-4-------------------------|


  E  E  E  E  E  E  E  E          
--------------------------|
--------------------------|
--1--1--1--1--1--1--1--1--|
--2--2--2--2--2--2--2--2--|
--2--2--2--2--2--2--2--2--|
--0--0--0--0--0--0--0--0--|

Bridge2
  E  E  E  E  E  E  E  E    
--2--2--2--2--2--2--2--2---|
--4--4--4--4--2--2--2--2---|
--4--4--4--4--3--3--3--3---|
--4--4--4--4--4--4--4--4---|
--2--2--2--2--4--4--4--4---|
--------------2--2--2--2---|


Reihenfolge:
Intro 6x
Intro2
Intro
Intro2
Riff1 2x
Verse1 2x
Refrain 2x
Vers 2 (Gitarre 1 und 2)
Refrain 2x, beim ersten mal die ersten beiden Akkorde als ganze Note spielen
Bridge1
Bridge2
Bridge1
Riff1
Refrain 2x

Und am Ende dann noch 4x Riff1. Die zweite Gitarre spielt dabei das:

      S  S  S  S  S  S  S  S  S  S  S  S  S  S  S  S  4x      
||----------------------------------------------------||
||----------------------------------------------------||
||*--14-14-14-14-14-14-14-14-14-14-14-14-14-14-14-14-*||
||*--14-14-14-14-14-14-14-14-14-14-14-14-14-14-14-14-*||
||---12-12-12-12-12-12-12-12-12-12-12-12-12-12-12-12--||
||----------------------------------------------------||





Duration Legend
---------------
W - whole
H - half
Q - quarter
E - 8th
S - 16th
T - 32nd
X - 64th
. - note dotted
|-n-|  - n-tuplets


Tablature Legend
----------------
L - tied note
x - dead note
g - grace note
(n) - ghost note
> - accentuded note
NH - natural harmonic
AH - artificial harmonic
TH - tapped harmonic
SH - semi harmonic
PH - pitch harmonic
h - hammer on
p - pull off
b - bend
br - bendRelease
pb - preBend
pbr - preBendRelease
brb - bendReleaseBend
\n/ - tremolo bar dip
\n - tremolo bar dive
-/n - tremolo bar Release up
/n\ - tremolo bar inverted dip
/n - tremolo bar return
-\n - tremolo bar Release down
S - shift slide
s - legato slide
/ -  slide into from below or out of upwards
\ -  slide into from above or out of downwards
~ - vibrato
W - wide vibrato
tr - trill
TP - tremolo picking
T - tapping
S - slap
P - pop
< - fade in
^ - brush up
v - brush down
Suggest correction
Give kudos to tab author, rate the tab!
1 2 3 4 5
comments
print report bad tab
guest
You may want to rate the tab now too:
select rating
Wanna post a correction for this tab? Suggest correction