Oops, an error
Loading. Please wait.

The Enemy Bass Tab

version 1
version 1

Whole song

Interactive

846 views 6 this week
no commentswrite comment
1 2 3 4 5
excellent!
x 6
add to favorites
launch autoscroll
font size
0
reset
guitar tuner
Tab Pro tools
  • play this tab
  • loop segment
  • change instrument
  • show fretboard
  • metronome
Autoscroll
slow
fast
+/-
esc
set tempo
stop
Contributor
Difficulty
novice
Hey Guys, this is the bass tab of The Enemy by Itchy Poopzkid.
I think, this tab is to 99,9% correct, because there is one sequence, this sounds tricky.
I hope you enjoy it. (At the sequence, you can see those ...., I'm not sure)

Intro (0:00 - 0:21)
G|-----------------|-----------------|----------------|-----------------|
D|-----------------|-----------------|-6--------------|-----------------|
A|-6-6-6-6-6-6-6-6-|-6-6-6-6-6-6-6-6-|----------------|-66--55--44--22--|
E|-----------------|-----------------|----------------|-----------------|

G|-------------|--------------|-------------|-----------------|
D|---6-4-------|---6-4--------|---6-4-------|-----------------|
A|-------6-5-4-|--------6-5-4-|-------6-5-4-|-66--55--44--242-|
E|-4-----------|-4------------|-4-----------|-----------------|

Verse 1 (0:21 - 0:40), (2:10 - 2:30)
G|-------------|-----------------|-------------|-----------------|
D|----2--------|---6---5---4---3-|----2--------|---6---8---9---11|
A|-------------|-----------------|-------------|-----------------|
E|0--------2-3-|-4---3---2---1---|0--------2-3-|-4---6---7---9---|

G|-------------|-----------------|-------------|-----------------|
D|----2--------|---6---5---4---3-|----2--------|-----------------|
A|-------------|-----------------|-------------|-6-6-6---6-6-6---|
E|0--------2-3-|-4---3---2---1---|0--------2-3-|-----------------|

Chorus 1 (0:40 - 0:59)
G|-------------|--------------|-------------|-----------------|
D|---6-4-------|---6-4--------|---6-4-------|-----------------|
A|-------6-5-4-|--------6-5-4-|-------6-5-4-|-66--55--44--22--|
E|-4-----------|-4------------|-4-----------|-----------------|

G|-------------|--------------|-------------|-----------------|
D|---6-4-------|---6-4--------|---6-4-------|-----------------|
A|-------6-5-4-|--------6-5-4-|-------6-5-4-|-66--55--44--242-|
E|-4-----------|-4------------|-4-----------|-----------------|

Verse 2 (1:00 - 1:18)
G|-------------|-----------------|-------------|-----------------|
D|----2--------|-----------------|----2--------|---6---8---9---11|
A|-------------|-----------------|-------------|-----------------|
E|0--------2-3-|-4--43--32--21--1|0--------2-3-|-4---6---7---9---|
                 ...............
G|-------------|-----------------|-------------|-----------------|
D|----2--------|-6---5---4---3---|----2--------|-----------------|
A|-------------|-6---5---4---3---|-------------|-6-6-6---6-6-6---|
E|0--------2-3-|-4---3---2---1---|0--------2-3-|-----------------|

Chorus 2 (1:18 - 1:40)
G|-------------|--------------|-------------|-----------------|
D|---6-4-------|---6-4--------|---6-4-------|-----------------|
A|-------6-5-4-|--------6-5-4-|-------6-5-4-|-66--55--44--22--| 2x
E|-4-----------|-4------------|-4-----------|-----------------|

G|----------------|-----------------|
D|----------------|-----------------|
A|-66--55--4--22--|-66--55--44--242-|
E|----------------|-----------------|

Interlude (1:40 - 2:10) - No bass

Chorus 3 (2:30 - 3:05)
G|-------------|--------------|-------------|-----------------|
D|---6-4-------|---6-4--------|---6-4-------|-----------------|
A|-------6-5-4-|--------6-5-4-|-------6-5-4-|-66--55--44--22--| 3x
E|-4-----------|-4------------|-4-----------|-----------------|

G|-------------|--------------|-------------|-----------------|
D|---6-4-------|---6-4--------|---6-4-------|-----------------|
A|-------6-5-4-|--------6-5-4-|-------6-5-4-|-66--55--44--242-|
E|-4-----------|-4------------|-4-----------|-----------------|

Outro (3:05 - 3:12)
G|-------------|
D|-------------|
A|-------------|
E|-4-4-4~~~----|

Order:
Intro
Verse 1
Chorus 1              If you like this tab, check out my 2 other tabs I made:
Verse 2               Try Try Try (vers. 2) - Itchy Poopzkid    --> (wasn't online at 
that time)
Chorus 2             Learn to Drown (vers. 4) - Itchy Poopzkid --> http://tabs.ultimate-guitar.com
Interlude             /i/itchy_poopzkid/learn_to_drown_ver4_btab.htm
Verse 1
Chorus 3
Outro
comments
print report bad tab
I want to post or [tab]
guest
You may want to rate the tab now too:
select rating
Please do not post tabs as comments. Select "correction" instead!