Oops, an error
Loading. Please wait.

The Living Tab

version 1
version 1

Whole song

Interactive

3,039 views 1 this week
no commentswrite comment
1 2 3 4 5
please rate
add to favorites
launch autoscroll
font size
0
reset
how to read this tab
guitar tuner
Autoscroll
slow
fast
+/-
esc
set tempo
stop
Help us to improve Ultimate-Guitar.com Take our survey!
×
Author
Vers
|---------------------------------------------------------|
|---------------------------------------------------------|
|-8--------11--------4-4-4-4-6-6-6-6-8--8--8--8-8-8-------|
|-6-(x32)--11-(x16)--4-4-4-4-6-6-6-6-8--8--8--8-8-8-------|
|-6--------9---------2-2-2-2-4-4-4-4-6--6--6--6-6-6-------|
|---------------------------------------------------------|

|-------------------------------------------------------------------|
|-------------------------------------------------------------------|
|-8--------11--------8---------4-4-4-4-6-6-6-6-8--8--8--8-8-8-------|
|-6-(x16)--11-(x16)--8--(x16)--4-4-4-4-6-6-6-6-8--8--8--8-8-8-------|
|-6--------9---------6---------2-2-2-2-4-4-4-4-6--6--6--6-6-6-------|
|-------------------------------------------------------------------|

|-----------------------------------------------------|
|-----------------------------------------------------|
|-8--------11--------8---------4-4-4-4-6-6-6-6--------|
|-6-(x16)--11-(x16)--8--(x16)--4-4-4-4-6-6-6-6--------|
|-6--------9---------6---------2-2-2-2-4-4-4-4--------|
|-----------------------------------------------------|


  Am  D  G  C Am  D  G  C Am  D  G  G
|--0--2--3--0--0--2--3--0--0--2--2--3------|
|--1--3--3--1--1--3--3--1--1--3--3--3------|
|--2--2--0--0--2--2--0--0--2--2--0--4------|
|--2--0--0--2--2--0--0--2--2--0--0--5-(x8)-|
|--0--0--2--3--0--0--2--3--0--0--2--5------|
|--0--0--3--0--0--0--3--0--0--0--3--3------|
Suggest correction
Give kudos to tab author, rate the tab!
1 2 3 4 5
comments
print report bad tab
guest
You may want to rate the tab now too:
select rating
Please do not post tabs as comments. Select "correction" instead!