Oops, an error
Loading. Please wait.

The Person I Hope Youre Not Tab

138 views 1 this week
1 commentread comment
1 2 3 4 5
please rate
add to favorites
launch autoscroll
font size
0
reset
how to read this tab
guitar tuner
Autoscroll
slow
fast
+/-
esc
set tempo
stop
Help us to improve Ultimate-Guitar.com Take our survey!
×
Author
Difficulty
Tuning
novice
D# G# C# F# A# D#
Itchy Poopzkid - The Person I Hope You're Not
Tuning: Half-Step-Down

Main Riff
eb|---------------------------------------------------------------------------|
Bb|---------------------------------------------------------------------------|
Gb|---------------------------------------------------------------------------|
Db|---------h5---------h5-------------------h5----------5h--------------------| x2
Ab|---0h5h7----7-0h5h7----7-5h7p5-----0h5h7----7-0h5h7h-----------------------|
Eb|-0--------------------------------0----------------------6-5-3-0-----------|

Intro
eb|---------------------------------------------------------------------------|
Bb|---------------------------------------------------------------------------|
Gb|-------------7-7-8-8-------------7-7-8-8-----------------------------------|
Db|-3-3-5-5-7-7-7-7-8-8-2-2-5-5-7-7-7-7-8-8-----------------------------------|
Ab|-3-3-5-5-7-7-5-5-6-6-2-2-5-5-7-7-5-5-6-6-----------------------------------|
Eb|-0-0-3-3-5-5---------0-0-3-3-5-5-------------------------------------------|

Main Riff

Interlude
eb|---------------------------------------------------------------------------|
Bb|---------------------------------------------------------------------------|
Gb|---------------------------------------------------------------------------|
Db|---------------------------------------------------------------------------|
Ab|-3---------0-1-2-3---------0-1-2-3-----------------------------------------|
Eb|---0-1-2-3---------0-1-2-3-------------------------------------------------|

Main Riff
Interlude
eb|-----------------------------|
Ab|-----------------------------|
Gb|-----------------------------|
Db|-----------------------------|
Ab|-3---------0-1-2-3-------5---|
Eb|---0-1-2-3---------0-1-2-----|

Chorus
eb|-------------------------------------------|
Bb|-------------------------------------------|
Gb|-----7-7-----5-5-7-7-----7-7-----5-5-7-7---|
Db|-5-5-7-7-7-7-5-5-7-7-5-5-7-7-7-7-5-5-7-7---|
Ab|-5-5-5-5-7-7-3-3-5-5-5-5-5-5-7-7-3-3-5-5---|
Eb|-3-3-----5-5---------3-3-----5-5-----------|

Main Riff + Intro
Main Riff
eb|-----------------------------|
Ab|-----------------------------|
Gb|-----------------------------|
Db|-----------------------------|
Ab|-3-------5-------------------|
Eb|---0-1-2---------------------|

Chorus

Bridge
eb|-----------------------------------------------------|
Bb|-----------------------------------------------------|
Gb|-4-4-5-5-5/7-7-7-4-4-5-5-5/7-7-7-4-4-5-5-7-7-8-8-----|
Db|-4-4-5-5-5/7-7-7-4-4-5-5-5/7-7-7-4-4-5-5-7-7-8-8-----|
Ab|-2-2-3-3-3/5-5-5-2-2-3-3-3/5-5-5-2-2-3-3-5-5-6-6-----|
Eb|-----------------------------------------------------|

eb|--------------------|Main-Riff-from-here|Chorus-from-here)-|
Bb|-----------------------------------------------------------|
Gb|-------------7-7-8-8-------------7-7-8-8-------------------|
Db|-3-3-5-5-7-7-7-7-8-8-2-2-5-5-7-7-7-7-8-8-5-5-5-------------|
Ab|-3-3-5-5-7-7-5-5-6-6-2-2-5-5-7-7-5-5-6-6-5-5-5-------------|
Eb|-0-0-3-3-5-5---------0-0-3-3-5-5---------3-3-3-------------|

Chorus 2x
Main Riff + Intro
Suggest correction new What's this?
You can suggest a correction to this tab. Community and Mods will review your correction and vote to approve or reject it.
comments
We did not receive enough feedback on this tab! Please rate:
print report bad tab
1 2 3 4 5
1 comment total.
0 reply
xxxxclara 160 wrote on October 23 2013, 12:55 pm

can you please do a chords one aswell? :(((

guest
You may want to rate the tab now too:
select rating
Please do not post tabs as comments. Select "correction" instead!