Oops, an error
Loading. Please wait.

The Pirate Song Bass Tab

370 views 1 this week
no commentswrite comment
1 2 3 4 5
please rate
add to favorites
launch autoscroll
font size
0
reset
guitar tuner
Autoscroll
slow
fast
+/-
esc
set tempo
stop
Help us to improve Ultimate-Guitar.com Take our survey!
×
Author
Difficulty
Tuning
novice
D# G# C# F# A# D#
Easy but good song from Itchy Poopzkid's new record "Ports & Chords"
Have fun with "The Pirate Song", in my opinion the best song on the new record!

And please don't forget to rate! :)

Begin to play at 0:13
Main Riff
Gb|----------------|----------------|----------------|----------------|
Db|----------------|----------------|----------------|----------------|
Ab|----------------|----------------|----------------|----------------| 2x
Eb|5555555~~~~~0~~~|3333333~~~~~0~~~|1111111~~~~~3~~~|0000000044444444|
   SSSSSSQ.    Q    SSSSSSQ.    Q    SSSSSSQ.    Q    SSSSSSSSSSSSSSSS

Verse
Gb|----------------|----------------|----------------|----------------|
Db|----------------|----------------|----------------|----------------|
Ab|----------------|----------------|----------------|----------------| 2x
Eb|5---5---5---55--|3---3---3---33--|1---1---1---11--|0~~~~~~~0~~~~~~~|
   Q   Q   Q   SE.  Q   Q    Q  SE.  Q   Q   Q   SE.  H       H

Pre-Chorus
Gb|----------------|----------------|----------------|
Db|----------------|--------3~~~3-3-|2~~~2-2-5~~~5-5-|
Ab|----------------|3~~~3-3---------|----------------| 2x
Eb|5~~~5-5-3~~~3-3-|----------------|----------------|
   Q   E E Q   E E  Q   E E Q   E E  Q   E E Q   E E

Main Riff only once

Chorus
Gb|----------------|----------------|----------------|----------------|
Db|----------------|----------------|----------------|----------------|
Ab|3~~~3~~~3-33--3-|----------------|----------------|----------------|
Eb|----------------|3~~~3~~~3-33--3-|5~~~5~~~5-55--5-|0~~~0~~~0-00--0-|
   Q   Q   E SE. E  Q   Q   E SE. E  Q   Q   E SE. E  Q   Q   E SE. E

Gb|----------------|----------------|----------------|----------------|
Db|----------------|----------------|----------------|2~~~------------|
Ab|----------------|3~~~3~~~3-33--3-|----------------|----5~~~3~~~2~~~|
Eb|1~~~1~~~1-11--1-|----------------|0~~~0~~~0-00--0-|----------------|
   Q   Q   E SE. E  Q   Q   E SE. E  Q   Q   E SE. E  Q   Q   Q   Q

Gb|----------------|----------------|----------------|----------------|
Db|----------------|----------------|----------------|----------------|
Ab|3~~~3~~~3-33--3-|----------------|5~~~5~~~5-55--5-|----------------|
Eb|----------------|3~~~3~~~3-33--3-|----------------|5~~~5~~~5-55--5-|
   Q   Q   E SE. E  Q   Q   E SE. E  Q   Q   E SE. E  Q   Q   E SE. E

Gb|----------------|----------------|----------------|
Db|----------------|----------------|----------------|
Ab|----------------|3~~~3~~~3-33--3-|----------------|
Eb|1~~~1~~~1-11--1-|----------------|0~~~0~~~0-33--3-|
   Q   Q   E SE. E  Q   Q   E SE. E  Q   Q   E SE. E  

Main Riff
Verse
Pre-Chorus
Chorus
Main Riff
Pause from 2:35-2:47, then:
Pre-Chorus

Little Bridge
Gb|----------------|----------------|----------------|----------------|
Db|2~~~2-2-5~~~5-5-|2~~~2-2-5~~~5-5-|2~~~2-2-5~~~5-5-|----------------|
Ab|----------------|----------------|----------------|----------------|
Eb|----------------|----------------|----------------|----------------|
   Q   E E Q   E E  Q   E E Q   E E  Q   E E Q   E E  F

Chorus

Ending
Gb|----------------|
Db|----------------|
Ab|----------------|
Eb|5555555~~~~~~~~~|
   SSSSSSSH

F = Full note
H = Half note
Q = Quarter note
E = Eighth note
S = Sixteenth note
. = makes the note a half longer
\ = Slide up
/ = Slide down
h = Hammer-on
p = Pull-off
b = Bending
X = Mute note
Suggest correction new What's this?
You can suggest a correction to this tab. Community and Mods will review your correction and vote to approve or reject it.
comments
We did not receive enough feedback on this tab! Please rate:
print report bad tab
1 2 3 4 5
guest
You may want to rate the tab now too:
select rating
Please do not post tabs as comments. Select "correction" instead!