Oops, an error
Loading. Please wait.

The Pirate Song Tab

884 views 3 this week
no commentswrite comment
1 2 3 4 5
excellent!
x 1
add to favorites
launch autoscroll
font size
0
reset
how to read this tab
guitar tuner
Tab Pro tools
  • play this tab
  • loop segment
  • change instrument
  • show fretboard
  • metronome
Autoscroll
slow
fast
+/-
esc
set tempo
stop
Contributor
Difficulty
Tuning
novice
D# G# C# F# A# D#
Itchy Poopzkid - The Pirate Song
Half-Step-Down


Intro
eb|--------------------------------------------------------------------------|
Bb|--------------------------------------------------------------------------|
Gb|--------------------------------------------------------------------------|
Db|--10-10-10-10-10-10--9--9--9--9--9--9-7-7-7-7-7-7-6-6-6-6--9--9-----------|
Ab|-0--0--0--0--0--0--10-10-10-10-10-10-8-8-8-8-8-8-7-7-7-7-11-11------------|
Eb|--------------------------------------------------------------------------|

eb|--------------------------------------------------------------------------|
Bb|--------------------------------------------------------------------------|
Gb|--------------------------------------------------------------------------|
Db|--10-10-10-10-10-10--9--9--9--9--9--9-7-7-7-7-7-7-6-6-6-6-6-6-------------|
Ab|-0--0--0--0--0--0--10-10-10-10-10-10-8-8-8-8-8-8-7-7-7-7-7-7--7-5---------|
Eb|------------------------------------------------------------------8-7-----|

Chorus 1
eb|--------------------------------------------------------------------------|
Bb|--------------------------------------------------------------------------|
Gb|--------------------------------------------------------------------------|
Db|-777777-2-555555-2-333333-5-222222-555555---------------------------------| x2
Ab|-777777-2-555555-2-333333-5-222222-555555---------------------------------|
Eb|-555555-0-333333-0-111111-3-000000-333333---------------------------------|

Verse
eb|--------------------------------------------------------------------------|
Bb|--------------------------------------------------------------------------|
Gb|--------------------------------------------------------------------------|
Db|-7777-5555-3333-2-5-7777-5555-3333-2-5------------------------------------|
Ab|-7777-5555-3333-2-5-7777-5555-3333-2-5------------------------------------|
Eb|-5555-3333-1111-0-3-5555-3333-1111-0-3------------------------------------|

Bridge
eb|--------------------------------------------------------------------------|
Bb|--------------------------------------------------------------------------|
Gb|-----5-----------5--------------------------------------------------------|
Db|-7-5-5-3-2-5-7-5-5-3-2-5--------------------------------------------------|
Ab|-7-5-3-3-2-5-7-5-3-3-2-5--------------------------------------------------|
Eb|-5-3---1-0-3-5-3---1-0-3--------------------------------------------------|

Chorus 1 (1x)

Chorus 2
eb|--------------------------------------------------------------------------|
Bb|--------------------------------------------------------------------------|
Gb|-5555---------------------5555------5555------7777-----------3333---------|
Db|-5555-5555-7777-2222-3333-5555-2222-5555-5555-7777-7775-3333-3333-2255----|
Ab|-3333-5555-7777-2222-3333-3333-2222-3333-5555-5555-7775-3333-5555-2255----|
Eb|------3333-5555-0000-1111------0000------3333------5553-1111------0033----|

Chorus 1
Verse
Bridge
Chorus 2

Solo (Background: Chorus 1)
eb|------------------------------------------------------------------------------|
Bb|------------------------------------------------------------------------------|
Gb|-14--14--12--12--10--10---9-9-9-7---------------------------------------------|
Db|---14--14--12--12--10--10---------7-------------------------------------------|
Ab|-------------------------------------11---------------------------------------|
Eb|------------------------------------------------------------------------------|

eb|--------------------------------------------------15----15-17-15-19-17-19-20-|
Bb|--------------------------------15----15-17-15-17----17----------------------|
Gb|-14--14--14-16--16--16-17-16-17----17----------------------------------------|
Db|---14--17-----17--19---------------------------------------------------------|
Ab|-----------------------------------------------------------------------------|
Eb|-----------------------------------------------------------------------------|

Intro (1. Part)
Bridge 2
eb|--------------------------------------------------------------------------|
Bb|--------------------------------------------------------------------------|
Gb|-----5-----------5--------------------------------------------------------|
Db|-7-5-5-3-2-5-7-5-5-3-2-5-2-5-2-5-x-x-x-x-x-x------------------------------|
Ab|-7-5-3-3-2-5-7-5-3-3-2-5-2-5-2-5-x-x-x-x-x-x------------------------------|
Eb|-5-3---1-0-3-5-3---1-0-3-0-3-0-3-x-x-x-x-x-x------------------------------|

Chorus 3
eb|--------------------------------------------------------------------------|
Bb|--------------------------------------------------------------------------|
Gb|-5555---------------------5555------5555------7777-----------3333---------|
Db|-5555-5555-7777-2222-3333-5555-2222-5555-5555-7777-7775-3333-3333-2255-777|
Ab|-3333-5555-7777-2222-3333-3333-2222-3333-5555-5555-7775-3333-5555-2255-777|
Eb|------3333-5555-0000-1111------0000------3333------5553-1111------0033-555|
comments
We did not receive enough feedback on this tab! Please rate:
print report bad tab
1 2 3 4 5
I want to post or [tab]
guest
You may want to rate the tab now too:
select rating
Please do not post tabs as comments. Select "correction" instead!