Oops, an error
Loading. Please wait.

Try Try Try Bass Tab

version 1
version 1

Whole song

3,226 views 1 this week
1 commentread comment
1 2 3 4 5
x 5
add to favorites
launch autoscroll
font size
0
reset
guitar tuner
Autoscroll
slow
fast
+/-
esc
set tempo
stop
Help us to improve Ultimate-Guitar.com Take our survey!
×
Author
Artist: Itchy Poopzkid
Song: Try Try Try
Album: Time to Ignite

Tuning: Standard

this song is really easy ;)

Intro/Verse
G|-------------------------------------------|
D|--0-7-5s6-7--0-7-5s6-7---2-3-5-7-(7)-5-3-2-|
A|-----------------------1-------------------|   repeat 10 times!
E|------------------------------------------ |
Suggest correction
comments
print report bad tab
1 comment total.
+1 reply
zarkasm 10 Mar 19, 2009 06:16 PM

Sorry, but this is only partially correct (bzw auf Deutsch: Ne stimmt nicht ganz^^)
This is the way I play it, should be right:
G|-------------------------------------|
D|---7-5-7-----7-5-7---3-2-3--77-5-3-2-|
A|-5--------55-------1-----------------|
E|-------------------------------------|

guest
You may want to rate the tab now too:
select rating
Wanna post a correction for this tab? Suggest correction