Oops, an error
Loading. Please wait.

Try Try Try Bass Tab

version 2
version 2

Whole song

923 views 1 this week
no commentswrite comment
1 2 3 4 5
excellent!
x 3
add to favorites
launch autoscroll
font size
0
reset
guitar tuner
Autoscroll
slow
fast
+/-
esc
set tempo
stop
Help us to improve Ultimate-Guitar.com Take our survey!
×
Author
Difficulty
intermediate
Hey, this is a better version of Try Try Try by Itchy Poopzkid, one of my favourite bands.
This tab is much better than the first shitty one (sorry, but it's the truth) and it's 
100% correct.
If it's not correct, send me a message.

Intro (0:00 - 0:05)
G|-------------------|-----------------|
D|---7-5-7-----7-5-7-|---------7-5-----|
A|-5-------5-5-------|---8-7-8-----8-7-|
E|-------------------|-6---------------|

Verse (0:05 - 0:50) (Pretty much the same as Intro, only one/two note(s) more),
(1:17 - 1:47 [repeat the last row not that much])
G|-------------------|------------------|
D|---7-5-7-----7-5-7-|---------77-5-----|
A|-5-------5-5-------|---8-7-8------8-7-|
E|-------------------|-6----------------|

G|-------------------|-------------------|
D|---7-5-7-----7-5-7-|---------77-5------|
A|-5-------5-5-------|---8-7-8------88-7-|
E|-------------------|-6-----------------|

G|-------------------|------------------|
D|---7-5-7-----7-5-7-|---------77-5-----|
A|-5-------5-5-------|---8-7-8------8-7-| 9x
E|-------------------|-6----------------|

Pre-Chorus (0:50 - 1:00), (1:47 - 1:57-|
G|----------------|--------------------|
D|----------------|--------------------|
A|-----------5~~~~|--------------------|
E|-6~~~~8~~~~-----|-6~~~~8~~~5~~~8-----|

Chorus (1:00 - 1:17)
G|-----------------|-----------------|-----------------|-----------------|
D|-----------------|-----------------|-----------------|-----------------|
A|-5-5-5-5---------|-5-5-5-5---------|---------8-8-8-8-|-----------------| 2x
E|---------5-5-5-5-|---------5-5-5-5-|-6-6-6-6---------|-6-6-6-6-8-8-8-8-|

Chorus Variation (1:57 - 2:15), (2:50 - 3:08)
G|-----------------|-----------------|-----------------|-----------------|
D|-----------------|-----------------|-----------------|-----------------|
A|-5-5-5-5---------|-5-5-5-5---------|---------8-8-8-8-|-----------------|
E|---------5-5-5-5-|---------5-5-5-5-|-6-6-6-6---------|-6-6-6-6-8-8-8-8-|

G|-----------------|-----------------|-----------------|
D|-----------------|-----------------|-----------------|
A|-5-5-5-5---------|-5-5-5-5---------|---------8-8-8-8-|
E|---------5-5-5-5-|---------5-5-5-5-|-6-6-6-6---------|

G|-----------------|-----------------|
D|-----------------|-----------------|
A|-----------------|-----------------|
E|-6-6-6-6-6-6-6-6-|-8-8-8-8-8-8-8-8-|

Bridge (2:15 - 2:50) A bit tricky :)
G|-------0-2-0-----|-------5-7-5-----|-----2-3-5-3-2---|-2-2---0-2-0-----|
D|-0-2-3-------3-2-|-5-7-8-------8-7-|-3-5-----------5-|-----2-------3-2-|
A|-----------------|-----------------|-----------------|-----------------| 3x
E|-----------------|-----------------|-----------------|-----------------|

G|-------0-2-0-----|-------5-7-5-----|-----2-3-5-3-2---|-----------------|
D|-0-2-3-------3-2-|-5-7-8-------8-7-|-3-5-----------5-|-----------------|
A|-----------------|-----------------|-----------------|-0-0-0-0-0-0-0-0-|
E|-----------------|-----------------|-----------------|-----------------|

Outro (3:08 - 3:13)
G|-------------------|
D|-------------------|
A|-5-5-5-5-5-5-5-5-5-|
E|-------------------|

Order:
Intro
Verse
Pre-Chorus
Chorus
Verse
Pre-Chorus
Chorus variation
Bridge
Chorus variation
Outro

Enjoy! :)
Suggest correction
Give kudos to tab author, rate the tab!
1 2 3 4 5
comments
print report bad tab
guest
You may want to rate the tab now too:
select rating
Please do not post tabs as comments. Select "correction" instead!