Oops, an error
Loading. Please wait.

Watch Us Come Undone tab

version 1
version 1

Whole song

Interactive

65 views 1 this week
no commentswrite comment
1 2 3 4 5
3 more votes to show rating
add to favorites
×
Save as Personal and add changes to this tab that will be seen only by you. Learn more ›
×
You can save this tab as Personal to edit and correct it or add notes. All changes will be seen only by you. Learn more »
launch autoscroll
font size
0
reset
how to read this tab
guitar tuner
edit
Autoscroll
slow
fast
+/-
esc
set tempo
stop
Itchy Poopzkid - Watch Us Come Undone
Lights Out London
2011

[Intro]

D#|------------------------|-2--0--2--3--3--3--3--3-|    
A#|-3--2--3--2--2--0--2--0-|-3--3--3--3--3--0--3--0-|   
F#|-4--4--4--4--2--2--2--2-|-2--2--2--2--0--0--0--0-| 
C#|-4--4--4--4--2--2--2--2-|-0--0--0--0--0--0--0--0-| x4  
G#|-2--2--2--2--0--0--0--0-|-------------2--2--2--2-|   
D#|------------------------|-------------3--3--3--3-|  

                                                                             PM----------------|
D#|-------------2--0--2--0-|-------------3--3--3--3-|-3--3--3--3--2--2--2--2-|---------------------|
A#|-3--2--3--2--3--3--3--3-|-2--0--2--0--3--3--3--3-|-3--3--3--3--3--3--3--3-|-------------------2-|
F#|-4--4--4--4--2--2--2--2-|-2--2--2--2--0--0--0--0-|-0--0--0--0--2--2--2--2-|-3--3--3--3--3--3--3-|
C#|-4--4--4--4--0--0--0--0-|-2--2--2--2--0--0--0--0-|-0--0--0--0--0--0--0--0-|-4--4--4--4--4--4--4-|
G#|-2--2--2--2-------------|-0--0--0--0--2--2--2--2-|-2--2--2--2-------------|-4--4--4--4--4--4--4-|
D#|------------------------|-------------3--3--3--3-|-3--3--3--3-------------|-2--2--2--2--2--2--2-|

(Guitar 1)
D#|------------------------|------------------------|------------------------|------------------------|
A#|------------------------|------------------------|------------------------|------------------------|
F#|------------------------|------------------------|------------------------|------------------------|
C#|------------------------|------------------------|------------------------|-------------4----------|
G#|----------5--4-----4----|-5--0--5--7--4-----4--0-|----------5--4-----4----|-5--0--5--7-----7--5--4-|
D#|-7--5--7--------5-----5-|----------------2-------|-7--5--7--------5-----5-|------------------------|

(Guitar 2)
D#|----------------------|----------------------|
A#|----------------------|----------------------|
F#|-4----4--4--2----2--2-|-7----7--7------------|
C#|-4----4--4--2----2--2-|-7----7--7--4----4--4-| x2
G#|-2----2--2--0----0--0-|-5----5--5--4----4--4-|
D#|----------------------|------------2----2--2-|


[Verse 1]

D#|---------------------|------------------|
A#|---------------------|-3--3-3-----------|
F#|-4-4-4-4-4----2-2--2-|-2--2-2-----------|
C#|-4-4-4-4-4----2-2--2-|-0--0-0----5-5--5-| x2
G#|-2-2-2-2-2----0-0--0-|-----------5-5--5-|
D#|---------------------|-----------3-3--3-|

D#|----------------------|---------------------|---------------------|
A#|----------------------|---------------------|---------------------|
F#|-4----4--4--7----7--7-|---------------------|-----------7----7--7-|
C#|-4----4--4--7----7--7-|-7---7--7--5----5--5-|-5---5--5--7----7--7-|
G#|-2----2--2--5----5--5-|-7---7--7--5----5--5-|-5---5--5--5----5--5-|
D#|----------------------|-5---5--5--3----3--3-|-3---3--3------------|

D#|---------------------|------------------|
A#|---------------------|-3--3-3-----------|
F#|-4-4-4-4-4----2-2--2-|-2--2-2-----------|
C#|-4-4-4-4-4----2-2--2-|-0--0-0----5-5--5-| x2
G#|-2-2-2-2-2----0-0--0-|-----------5-5--5-|
D#|---------------------|-----------3-3--3-|

D#|----------------------|---------------------|---------------------|
A#|----------------------|---------------------|---------------------|
F#|-4----4--4--7----7--7-|---------------------|-----------7----7--7-|
C#|-4----4--4--7----7--7-|-7---7--7--5----5--5-|-5---5--5--7----7--7-|
G#|-2----2--2--5----5--5-|-7---7--7--5----5--5-|-5---5--5--5----5--5-|
D#|----------------------|-5---5--5--3----3--3-|-3---3--3------------|

PM----------------------------------------|
D#|------------------------|------------------------|
A#|------------------------|------------------------|
F#|------------------------|------------------------|
C#|-4----------------------|-4--4--4--4--4--4--4--4-|
G#|-4--4--4--4--4--4--4--4-|-4--4--4--4--4--4--4--4-|
D#|-2--2--2--2--2--2--2--2-|-2--2--2--2--2--2--2--2-|


[Chorus]

D#|-----------------|----------------------|
A#|-----------------|----------------------|
F#|--4-4--4---------|-4-4-4-4-4--4---------|
C#|--4-4--4--5----5-|-4-4-4-4-4--4--5----5-|
G#|--2-2--2--5----5-|-2-2-2-2-2--2--5----5-|
D#|----------3----3-|---------------3----3-|

(Guitar 1)
D#|------------------------|------------------------|
A#|------------------------|------------------------|
F#|------------------------|------------------------|
C#|------------------------|-------------4----------|
G#|----------5--4-----4----|-5--0--5--7-----7--5--4-|
D#|-7--5--7--------5-----5-|------------------------|

(Guitar 2)
D#|----------------------|
A#|----------------------|
F#|-7----7--7------------|
C#|-7----7--7--7----7--7-| x2
G#|-5----5--5--7----7--7-|
D#|------------5----5--5-|

D#|-----------------|----------------------|
A#|-----------------|----------------------|
F#|--4-4--4---------|-4-4-4-4-4--4---------|
C#|--4-4--4--5----5-|-4-4-4-4-4--4--5----5-|
G#|--2-2--2--5----5-|-2-2-2-2-2--2--5----5-|
D#|----------3----3-|---------------3----3-|

(Guitar 1)
D#|------------------------|------------------------|
A#|------------------------|------------------------|
F#|------------------------|------------------------|
C#|------------------------|-------------4----------|
G#|----------5--4-----4----|-5--0--5--7-----7--5--4-|
D#|-7--5--7--------5-----5-|------------------------|

(Guitar 2)
D#|----------------------|
A#|----------------------|
F#|-7----7--7------------|
C#|-7----7--7--7----7--7-| x2
G#|-5----5--5--7----7--7-|
D#|------------5----5--5-|


[Interlude]

(Guitar 1)
D#|------------------------|------------------------|------------------------|------------------------|
A#|------------------------|------------------------|------------------------|------------------------|
F#|------------------------|------------------------|------------------------|------------------------|
C#|------------------------|------------------------|------------------------|-------------4----------|
G#|----------5--4-----4----|-5--0--5--7--4-----4--0-|----------5--4-----4----|-5--0--5--7-----7--5--4-|
D#|-7--5--7--------5-----5-|----------------2-------|-7--5--7--------5-----5-|------------------------|

(Guitar 2)
D#|----------------------|----------------------|
A#|----------------------|----------------------|
F#|-4----4--4--2----2--2-|-7----7--7------------|
C#|-4----4--4--2----2--2-|-7----7--7--4----4--4-| x2
G#|-2----2--2--0----0--0-|-5----5--5--4----4--4-|
D#|----------------------|------------2----2--2-|


[Verse 2]

D#|-----------|
A#|-----------|
F#|-5--5----5-|
C#|-5--5----5-|
G#|-3--3----3-|
D#|-----------|

D#|----------------------|----------------------|----------------------|
A#|----------------------|----------------------|----------------------|
F#|-4----4--4--7----7--7-|----------------------|------------7----7--7-|
C#|-4----4--4--7----7--7-|-7----7--7--5----5--5-|-5----5--5--7----7--7-|
G#|-2----2--2--5----5--5-|-7----7--7--5----5--5-|-5----5--5--5----5--5-|
D#|----------------------|-5----5--5--3----3--3-|-3----3--3------------|

D#|---------------------|------------------|
A#|---------------------|-3--3-3-----------|
F#|-4-4-4-4-4----2-2--2-|-2--2-2-----------|
C#|-4-4-4-4-4----2-2--2-|-0--0-0----5-5--5-| x2
G#|-2-2-2-2-2----0-0--0-|-----------5-5--5-|
D#|---------------------|-----------3-3--3-|

D#|----------------------|---------------------|---------------------|
A#|----------------------|---------------------|---------------------|
F#|-4----4--4--7----7--7-|---------------------|-----------7----7--7-|
C#|-4----4--4--7----7--7-|-7---7--7--5----5--5-|-5---5--5--7----7--7-|
G#|-2----2--2--5----5--5-|-7---7--7--5----5--5-|-5---5--5--5----5--5-|
D#|----------------------|-5---5--5--3----3--3-|-3---3--3------------|

PM----------------------------------------|
D#|------------------------|------------------------|
A#|------------------------|------------------------|
F#|------------------------|------------------------|
C#|-4----------------------|-4--4--4--4--4--4--4--4-|
G#|-4--4--4--4--4--4--4--4-|-4--4--4--4--4--4--4--4-|
D#|-2--2--2--2--2--2--2--2-|-2--2--2--2--2--2--2--2-|


[Chorus] 

D#|-----------------|----------------------|
A#|-----------------|----------------------|
F#|--4-4--4---------|-4-4-4-4-4--4---------|
C#|--4-4--4--5----5-|-4-4-4-4-4--4--5----5-|
G#|--2-2--2--5----5-|-2-2-2-2-2--2--5----5-|
D#|----------3----3-|---------------3----3-|

(Guitar 1)
D#|------------------------|------------------------|
A#|------------------------|------------------------|
F#|------------------------|------------------------|
C#|------------------------|-------------4----------|
G#|----------5--4-----4----|-5--0--5--7-----7--5--4-|
D#|-7--5--7--------5-----5-|------------------------|

(Guitar 2)
D#|----------------------|
A#|----------------------|
F#|-7----7--7------------|
C#|-7----7--7--7----7--7-| x2
G#|-5----5--5--7----7--7-|
D#|------------5----5--5-|

D#|-----------------|----------------------|
A#|-----------------|----------------------|
F#|--4-4--4---------|-4-4-4-4-4--4---------|
C#|--4-4--4--5----5-|-4-4-4-4-4--4--5----5-|
G#|--2-2--2--5----5-|-2-2-2-2-2--2--5----5-|
D#|----------3----3-|---------------3----3-|

(Guitar 1)
D#|------------------------|------------------------|
A#|------------------------|------------------------|
F#|------------------------|------------------------|
C#|------------------------|-------------4----------|
G#|----------5--4-----4----|-5--0--5--7-----7--5--4-|
D#|-7--5--7--------5-----5-|------------------------|

(Guitar 2)
D#|----------------------|
A#|----------------------|
F#|-7----7--7------------|
C#|-7----7--7--7----7--7-| x2
G#|-5----5--5--7----7--7-|
D#|------------5----5--5-|


[Bridge]

D#|-----------------|-------------------|-----------------|------------------------|
A#|-----------------|-------------------|-----------------|------------------------|
F#|-----------------|-------------------|-----------------|------------------------|
C#|-5----5----5---5-|-5----5--5--5----5-|-4----4----4---4-|-4--4--4----4----4----4-|
G#|-5----5----5---5-|-5----5--5--5----5-|-5----5----5---5-|-5--5--5----5----5----5-|
D#|-3----3----3---3-|-3----3--3--3----3-|-2----2----2---2-|-2--2--2----2----2----2-|

    PM|-----------------------------------------| PM|---------------------------------------------|
D#|------------------------|---------------------|------------------------|------------------------|
A#|------------------------|---------------------|------------------------|------------------------|
F#|------------------------|---------------------|------------------------|------------------------|
C#|-5----------------------|---------------------|-4----------------------|------------------------|
G#|-5--5--5--5--5--5--5--5-|-5--5--5--5--5--5--5-|-5--5--5--5--5--5--5--5-|-5--5--5--5--5--5--5--5-|
D#|-3--3--3--3--3--3--3--3-|-3--3--3--3--3--3--3-|-2--2--2--2--2--2--2--2-|-2--2--2--2--2--2--2--2-|

D#|----------------------------|
A#|----------------------------|
F#|-7--7- x-x-x-x-6--6-x-x-x-x-|
C#|-7--7--x-x-x-x-6--6-x-x-x-x-|
G#|-5--5--x-x-x-x-4--4-x-x-x-x-|
D#|----------------------------|


[Solo]

(Guitar 1)

D#|-------------------------|-----------------|--------------------------|-----------------------|
A#|-------------------------|-----------------|----------7--8--7--8p7----|-----------------------|
F#|----6--7--6----6----6----|-6br--7/9----9---|-7-----9----------------9-|-7-----7--9--9br--7--6-|
C#|--9----------------------|-----------------|----9---------------------|----9------------------| x2
G#|-------------------------|-----------------|--------------------------|-----------------------|
D#|-------------------------|-----------------|--------------------------|-----------------------|

(Guitar 2)
D#|-----------------|----------------------|
A#|-----------------|----------------------|
F#|--4-4--4---------|-4-4-4-4-4--4---------|
C#|--4-4--4--5----5-|-4-4-4-4-4--4--5----5-|
G#|--2-2--2--5----5-|-2-2-2-2-2--2--5----5-|
D#|----------3----3-|---------------3----3-|

D#|----------------------|
A#|----------------------|
F#|-7----7--7------------|
C#|-7----7--7--7----7--7-| x2
G#|-5----5--5--7----7--7-|
D#|------------5----5--5-|

D#|-----------------|----------------------|
A#|-----------------|----------------------|
F#|--4-4--4---------|-4-4-4-4-4--4---------|
C#|--4-4--4--5----5-|-4-4-4-4-4--4--5----5-|
G#|--2-2--2--5----5-|-2-2-2-2-2--2--5----5-|
D#|----------3----3-|---------------3----3-|

D#|----------------------|
A#|----------------------|
F#|-7----7--7------------|
C#|-7----7--7--7----7--7-| x2
G#|-5----5--5--7----7--7-|
D#|------------5----5--5-|


[Chorus] 

D#|-----------------|----------------------|
A#|-----------------|----------------------|
F#|--4-4--4---------|-4-4-4-4-4--4---------|
C#|--4-4--4--5----5-|-4-4-4-4-4--4--5----5-|
G#|--2-2--2--5----5-|-2-2-2-2-2--2--5----5-|
D#|----------3----3-|---------------3----3-|

(Guitar 1)
D#|------------------------|------------------------|
A#|------------------------|------------------------|
F#|------------------------|------------------------|
C#|------------------------|-------------4----------|
G#|----------5--4-----4----|-5--0--5--7-----7--5--4-|
D#|-7--5--7--------5-----5-|------------------------|

(Guitar 2)
D#|----------------------|
A#|----------------------|
F#|-7----7--7------------|
C#|-7----7--7--7----7--7-| x2
G#|-5----5--5--7----7--7-|
D#|------------5----5--5-|

D#|-----------------|----------------------|
A#|-----------------|----------------------|
F#|--4-4--4---------|-4-4-4-4-4--4---------|
C#|--4-4--4--5----5-|-4-4-4-4-4--4--5----5-|
G#|--2-2--2--5----5-|-2-2-2-2-2--2--5----5-|
D#|----------3----3-|---------------3----3-|

(Guitar 1)
D#|------------------------|------------------------|
A#|------------------------|------------------------|
F#|------------------------|------------------------|
C#|------------------------|-------------4----------|
G#|----------5--4-----4----|-5--0--5--7-----7--5--4-|
D#|-7--5--7--------5-----5-|------------------------|

(Guitar 2)
D#|----------------------|
A#|----------------------|
F#|-7----7--7------------|
C#|-7----7--7--7----7--7-| x2
G#|-5----5--5--7----7--7-|
D#|------------5----5--5-|


[Bridge]

D#|-----------------|-------------------|-----------------|------------------------|
A#|-----------------|-------------------|-----------------|------------------------|
F#|-----------------|-------------------|-----------------|------------------------|
C#|-5----5----5---5-|-5----5--5--5----5-|-4----4----4---4-|-4--4--4----4----4----4-|
G#|-5----5----5---5-|-5----5--5--5----5-|-5----5----5---5-|-5--5--5----5----5----5-|
D#|-3----3----3---3-|-3----3--3--3----3-|-2----2----2---2-|-2--2--2----2----2----2-|

    PM|-----------------------------------------| PM|---------------------------------------------|
D#|------------------------|---------------------|------------------------|------------------------|
A#|------------------------|---------------------|------------------------|------------------------|
F#|------------------------|---------------------|------------------------|------------------------|
C#|-5----------------------|---------------------|-4----------------------|------------------------|
G#|-5--5--5--5--5--5--5--5-|-5--5--5--5--5--5--5-|-5--5--5--5--5--5--5--5-|-5--5--5--5--5--5--5--5-|
D#|-3--3--3--3--3--3--3--3-|-3--3--3--3--3--3--3-|-2--2--2--2--2--2--2--2-|-2--2--2--2--2--2--2--2-|

D#|----------------------------|
A#|----------------------------|
F#|-7--7- x-x-x-x-6--6-x-x-x-x-|
C#|-7--7--x-x-x-x-6--6-x-x-x-x-|
G#|-5--5--x-x-x-x-4--4-x-x-x-x-|
D#|----------------------------|


[Outro]

D#|------------------------|-2--0--2--3--3--3--3--3-|    
A#|-3--2--3--2--2--0--2--0-|-3--3--3--3--3--0--3--0-|   
F#|-4--4--4--4--2--2--2--2-|-2--2--2--2--0--0--0--0-| 
C#|-4--4--4--4--2--2--2--2-|-0--0--0--0--0--0--0--0-| x4  
G#|-2--2--2--2--0--0--0--0-|-------------2--2--2--2-|   
D#|------------------------|-------------3--3--3--3-|  

                                                                             
D#|-------------2--0--2--0-|-------------3--3--3--3-|-3--3--3--3--2--2--2--2-|-2-|
A#|-3--2--3--2--3--3--3--3-|-2--0--2--0--3--3--3--3-|-3--3--3--3--3--3--3--3-|-3-|
F#|-4--4--4--4--2--2--2--2-|-2--2--2--2--0--0--0--0-|-0--0--0--0--2--2--2--2-|-4-|
C#|-4--4--4--4--0--0--0--0-|-2--2--2--2--0--0--0--0-|-0--0--0--0--0--0--0--0-|-4-|
G#|-2--2--2--2-------------|-0--0--0--0--2--2--2--2-|-2--2--2--2-------------|-2-|
D#|------------------------|-------------3--3--3--3-|-3--3--3--3-------------|---|


************************************

| x   Dead note
| p   Pull-off
| br  Bend release
| /   Slide up
| PM  Palm mute

************************************ 

            
            
Suggest correction
Creating personal tab
Creating personal tab
You can edit any tab online and save it as your Personal.

You can edit, replace or remove any tab part or add personal notes – all changes will be seen only by you.

Personal tabs can be accessed anytime from any device, even offline.
Learn more »
Give kudos to tab author, rate the tab!
1 2 3 4 5
comments
print report bad tab
guest
You may want to rate the tab now too:
select rating
Wanna post a correction for this tab? Suggest correction