Oops, an error
Loading. Please wait.

Where Is The Happiness Tab

version 1
version 1

Whole song

1,721 views 6 this week
no commentswrite comment
1 2 3 4 5
please rate
add to favorites
launch autoscroll
font size
0
reset
how to read this tab
guitar tuner
Autoscroll
slow
fast
+/-
esc
set tempo
stop
Help us to improve Ultimate-Guitar.com Take our survey!
×
Author
Difficulty
Tuning
intermediate
D# G# C# F# A# D#
                   Itchy Poopzkid - Where is the happiness

tabbed by: Sibbi-Guitar

Tuning: half step down


Intro + Verse I:

2x

D#----------------------------------------------------|
A#----------------------------------------------------|
F#----------------------------------------------------|
C#--2-2-2-2------------------2-2-2-2------------------|
G#----------3--3--3--3--3--3---------3--3--3--3--3--3-|
D#----------------------------------------------------|

----------------------------------------------------|
----------------------------------------------------|
----------------------------------------------------|
--2-2-2-2------------------2-2-2-2------------------|
----------0--0--0--0--0--0---------0--0--0--0--0--0-|
----------------------------------------------------|

beim 3ten Part:
----------------------------------------------------|
----------------------------------------------------|
----------------------------------------------------|
--2-2-2-2------------------2-2-2-2------------------|
----------3--3--3--3--3--3---------3--3--3--3--3--3-|
----------------------------------------------------|

----------------------------------------------------|
----------------------------------------------------|
----------------------------------------------------|
--2-2-2-2------------------2-2-2-2------------------|
----------0--0--0--0--0--0----------0---------------|
----------------------------------------------------|
                                    ^abdämpfen
Good morning innocence
Why did you leave last night
Self-doubts and disarray
Are always by my side

Welcome back loneliness
Missed me a lot I guess
One question that I got is:
WHERE IS THE HAPPINESS?


Bridge I:

  7x  1x   7x   1x   7x   1x   7x   1x
----------------------------------------------------|
----------------------------------------------------|
--5----9----5----9---------9---------9--------------|
--5----9----5----9----7----9----7----9--------------|
--3----7----3----7----7----7----7----7--------------|
----------------------5---------5-------------------|

Verse II:

2x

--3--3--3--3--3--3--3--3--5--5--5--5--5--5--5--5----|
--5--5--5--5--5--5--5--5--5--5--5--5--5--5--5--5----|
--5--5--5--5--5--5--5--5--5--5--5--5--5--5--5--5----|
--5--5--5--5--5--5--5--5--7--7--7--7--7--7--7--7----|
--3--3--5--3--3--3--3--3--7--7--7--7--7--7--7--7----|
--------------------------5--5--5--5--5--5--5--5----|

A deadheartet frame of mind
It barely tries to hide
Hatred and arrogance
Never just fit me right

But they're all just friends of mine
Some are more some are less
One thing is never there
WHERE IS THE HAPPINESS?


Refrain I:

----------------------------------------------------|
----------------------------------------------------|
--------------------5----------------9--------------|
-----3--------------5----------------9--------------|
-----3--------------3----------------7--------------|
-----1----------------------------------------------|
They drift away, to my dismay, they come and go just like they want

----------------------------------------------------|
----------------------------------------------------|
-------------------------------------5--------------|
------7-----5---3--2---3-------------5--------------|
------7-----5---3--2---3-------------3--------------|
------5-----3---1--0---1----------------------------|
But which one's gonna stay by me, I guarantee

----------------------------------------------------|
----------------------------------------------------|
---------------------------7~-----------------------|
-5~------------------------7~-----------------------|
-5~------------------------5~-----------------------|
-3~-------------------------------------------------|
one thing is never there, Where is the happiness today?

Wiederholung Intro: 1x

Verse III:

--3--3--3--3--3--3--3--3--5--5--5--5--5--5--5--5----|
--5--5--5--5--5--5--5--5--5--5--5--5--5--5--5--5----|
--5--5--5--5--5--5--5--5--5--5--5--5--5--5--5--5----|
--5--5--5--5--5--5--5--5--7--7--7--7--7--7--7--7----|
--3--3--5--3--3--3--3--3--7--7--7--7--7--7--7--7----|
--------------------------5--5--5--5--5--5--5--5----|

--3--3--3--3--3--3--3--3--5--5--5--5--5---------------|
--5--5--5--5--5--5--5--5--5--5--5--5--5---------------|
--5--5--5--5--5--5--5--5--5--5--5--5--5---------------|
--5--5--5--5--5--5--5--5--7--7--7--7--7---------------|
--3--3--5--3--3--3--3--3--7--7--7--7--7---------------|
--------------------------5--5--5--5--5--(5--3--1--0)-|
                                      ^abdämpfen (Bass spielt Übergang)
My brandnew loyalty
Meets my self-interest
The struggle a whole day
Cannot decide who's best

Welcome back loneliness
Who has given you access
One questio that I got is:
WHERE IS THE HAPPINESS?

Refrain II:
----------------------------------------------------|
----------------------------------------------------|
--------------------5----------------9--------------|
-----3--------------5----------------9--------------|
-----3--------------3----------------7--------------|
-----1----------------------------------------------|
They drift away, to my dismay, they come and go just like they want

----------------------------------------------------|
----------------------------------------------------|
-------------------------------------5--------------|
------7-----5---3--2---3-------------5--------------|
------7-----5---3--2---3-------------3--------------|
------5-----3---1--0---1----------------------------|
But which one's gonna stay by me, I guarantee

----------------------------------------------------|
----------------------------------------------------|
--------------------------7-------------------------|
-5------------------------7-------------------------|
-5------------------------5-------------------------|
-3--------------------------------------------------|
one thing is never there, Where is the happiness today?

Bridge II:

----------------------------------------------------|
----------------------------------------------------|
----------------------------------------------------|
--3---5---7~------3----5----7~----------------------|
--3---5---7~------3----5----7~----------------------|
--1---3---5~------1----3----5~----------------------|
Along my way, I found some aid

----------------------------------------------------|
----------------------------------------------------|
----------------------------------------------------|
-----3----5----7--------5---------------------------|
-----3----5----7--------5---------------------------|
-----1----3----5--------3---------------------------|
But what they said came way too late

----------------------------------------------------|
----------------------------------------------------|
----------------------------------------------------|
------3---5---7~---------3---5---7~-----------------|
------3---5---7~---------3---5---7~-----------------|
------1---3---5~---------1---3---5~-----------------|
Still I don't know, what I just need

----------------------------------------------------|
----------------------------------------------------|
------------------------------------9---------------|
---3----5----7------5---------------9---------------|
---3----5----7------5---------------7---------------|
---1----3----5------3-------------------------------|
I hate this insecurity, tell me what's gonna be

Solo: (Chords wie beim Refrain)

----------------------------------------------------|
----------------------------------------------------|
--14~-14~-14~-----------12--------------------------|
--------------10-12-14------14-12-10~---------------|
----------------------------------------------------|
----------------------------------------------------|


----------------------------------------------------|
----------------------------------------------------|
----------------------------------------------------|
--10-12-12--12--12--14-12-10-12-10------------------|
----------------------------------------------------|
----------------------------------------------------|
         ^   ^   ^
         abdämpfen

----------------------------------------------------|
----------------------------------------------------|
----------------------------------------------------|
--10-10-12--12-12-14--14-14-17--17-17---------------|
----------------------------------------------------|
----------------------------------------------------|

-----------------------------------------------------|
------------------13-13-15-15-17--17*/15--15*--------|
--14~-14~-14~--14------------------------------------|
-----------------------------------------------------|
-----------------------------------------------------|
-----------------------------------------------------|
                                   * nach oben binden
                                   / slide

One thing is never there
Where is the happiness today?


Intro 1 x wiederholen


Outro:
 C                     C
-0---------------------0----------------------------|
-1---------------------1----------------------------|
-0---------------------0----------------------------|
-2---------------------2----------------------------|
-3---------------------3----------------------------|
----------------------------------------------------|
  Good evening honesty, haven't seen you for days

 Am                     Am
-0----------------------0------------------------------|
-1----------------------1------------------------------|
-2----------------------2------------------------------|
-2----------------------2------------------------------|
-0----------------------0------------------------------|
-------------------------------------------------------|
  my self-deception has, shown me so many ways

 Dm                    F
-1---------------------1-------------------------------|
-3---------------------1-------------------------------|
-2---------------------2-------------------------------|
-0---------------------3-------------------------------|
-----------------------3-------------------------------|
-----------------------1-------------------------------|
 to keep away the pain, and all the awefulness

 Dm                         F                  G           C
-1--------------------------1------------------3-----------0-|
-3--------------------------1------------------3-----------1-|
-2--------------------------2------------------0-----------0-|
-0--------------------------3------------------0-----------2-|
----------------------------3------------------2-----------3-|
----------------------------1------------------3-------------|
 think that is how I pushed, that thing called happiness away.
Suggest correction
What's this?
You can suggest a correction to this tab. Community and Mods will review your correction and vote to approve or reject it.
comments
We did not receive enough feedback on this tab! Please rate:
print report bad tab
1 2 3 4 5
guest
You may want to rate the tab now too:
select rating
Please do not post tabs as comments. Select "correction" instead!