Oops, an error
Loading. Please wait.

Where Is The Happiness Bass Tab

version 2
version 2

Whole song

600 views 1 this week
no commentswrite comment
1 2 3 4 5
please rate
add to favorites
launch autoscroll
font size
0
reset
guitar tuner
Autoscroll
slow
fast
+/-
esc
set tempo
stop
Help us to improve Ultimate-Guitar.com Take our survey!
×
Contributor
Intro:
G|--8888---------8888---------8888---------8888---------|
D|-------9999999------9999999------6666666------6666666-|
A|------------------------------------------------------|
D#|-----------------------------------------------------| x2

G|--8888---------8888---------8888---------888----|
D|-------9999999------9999999------6666666----6---|
A|------------------------------------------------|
D#|-----------------------------------------------|

Verse:
G|---------------------------------------------------|
D|---------------------------------------------------|
A|-----------6666---------6666---------6666----------|
D#---8888888------8888888------5555555------55555557-|

G|-----------------------------------------|
D|-----------------------------------------|
A|-----------------------------------------|
D#---88888887--88888887--55555553--5555555-|

G|----------------------------------------------|
D|--8-99999998--99999998--66666664--66666664-6--|
A|----------------------------------------------|
D#----------------------------------------------|

Chorus:
G|-------------------------------------------|
D|-------------------------------------------|
A|-----------22222222-66666666---------------|
D#|-11111111-------------------5---3---1---0-|

G|---------------------------|
D|---------------------------|
A|-----------22222222------4-|
D#|-11111111------------3----|

Verse 2:
G|------------------------------------------|
D|------------------------------------------|
A|------------------------------------------|
D#---88888887--88888887--55555553--55555557-|

G|-----------------------------------------|
D|-----------------------------------------|
A|-----------------------------------------|
D#---88888887--88888887--55555553--5555555-|

G|-----------------------------------------|
D|--8-99999998--99999998--66666664-6-4-2-1-|
A|-----------------------------------------|
D#-----------------------------------------|

Chorus 2:
G|-------------------------------------------|
D|-------------------------------------------|
A|-----------22222222-66666666---------------|
D#|-11111111-------------------5---3---1---0-|

G|----------------------------------------|
D|----------------------------------------|
A|-----------22222222-----------444444444-|
D#|-11111111-----------33333333-----------|

Bridge:
G|-------------------------------------|
D|-------------------------------------|
A|-------------------------------------|
D#|-1--3--5----1--3--5----1--3--5---3--|

G|--------------------------------------------|
D|--------------------------------------------|
A|-------------------------------------666666-|
D#|-1--3--5----1--3--5----1--3--5---3---------|

Solo:
G|-------------------------------------------|
D|-------------------------------------------|
A|-----------22222222-66666666---------------|
D#|-11111111-------------------5---3---1---0-|

G|---------------------------|
D|---------------------------|
A|-----------22222222------4-|
D#|-11111111------------3----|

That should be correct! 
Hear The song for the right timing!
And check out my bass cover: http://www.youtube.com/watch?v=8j7_w9Ku0qg
comments
We did not receive enough feedback on this tab! Please rate:
print report bad tab
1 2 3 4 5
I want to post or [tab]
guest
You may want to rate the tab now too:
select rating
Please do not post tabs as comments. Select "correction" instead!